  0
SECTION
  2
HEADER
  9
$ACADVER
  1
AC1015
  9
$ACADMAINTVER
 70
     6
  9
$DWGCODEPAGE
  3
ANSI_1252
  9
$INSBASE
 10
0.0
 20
0.0
 30
0.0
  9
$EXTMIN
 10
-9.751493061
 20
-20.6468705971
 30
0.0
  9
$EXTMAX
 10
10.3662233841
 20
6.8335860513
 30
0.0
  9
$LIMMIN
 10
0.0
 20
0.0
  9
$LIMMAX
 10
420.0
 20
297.0
  9
$ORTHOMODE
 70
     0
  9
$REGENMODE
 70
     1
  9
$FILLMODE
 70
     1
  9
$QTEXTMODE
 70
     0
  9
$MIRRTEXT
 70
     1
  9
$LTSCALE
 40
1.0
  9
$ATTMODE
 70
     1
  9
$TEXTSIZE
 40
3.5
  9
$TRACEWID
 40
1.0
  9
$TEXTSTYLE
  7
Standard
  9
$CLAYER
  8
0
  9
$CELTYPE
  6
ByLayer
  9
$CECOLOR
 62
   256
  9
$CELTSCALE
 40
1.0
  9
$DISPSILH
 70
     0
  9
$DIMSCALE
 40
1.0
  9
$DIMASZ
 40
3.302
  9
$DIMEXO
 40
1.0
  9
$DIMDLI
 40
3.75
  9
$DIMRND
 40
0.0
  9
$DIMDLE
 40
0.0
  9
$DIMEXE
 40
1.0
  9
$DIMTP
 40
0.0
  9
$DIMTM
 40
0.0
  9
$DIMTXT
 40
3.5
  9
$DIMCEN
 40
2.5
  9
$DIMTSZ
 40
0.0
  9
$DIMTOL
 70
     0
  9
$DIMLIM
 70
     0
  9
$DIMTIH
 70
     1
  9
$DIMTOH
 70
     1
  9
$DIMSE1
 70
     0
  9
$DIMSE2
 70
     0
  9
$DIMTAD
 70
     1
  9
$DIMZIN
 70
     0
  9
$DIMBLK
  1

  9
$DIMASO
 70
     1
  9
$DIMSHO
 70
     1
  9
$DIMPOST
  1

  9
$DIMAPOST
  1

  9
$DIMALT
 70
     0
  9
$DIMALTD
 70
     3
  9
$DIMALTF
 40
0.0393700787
  9
$DIMLFAC
 40
1.0
  9
$DIMTOFL
 70
     1
  9
$DIMTVP
 40
0.0
  9
$DIMTIX
 70
     0
  9
$DIMSOXD
 70
     0
  9
$DIMSAH
 70
     0
  9
$DIMBLK1
  1

  9
$DIMBLK2
  1

  9
$DIMSTYLE
  2
ISO-25
  9
$DIMCLRD
 70
     0
  9
$DIMCLRE
 70
     0
  9
$DIMCLRT
 70
     0
  9
$DIMTFAC
 40
1.0
  9
$DIMGAP
 40
1.524
  9
$DIMJUST
 70
     0
  9
$DIMSD1
 70
     0
  9
$DIMSD2
 70
     0
  9
$DIMTOLJ
 70
     0
  9
$DIMTZIN
 70
     0
  9
$DIMALTZ
 70
     0
  9
$DIMALTTZ
 70
     0
  9
$DIMUPT
 70
     0
  9
$DIMDEC
 70
     2
  9
$DIMTDEC
 70
     2
  9
$DIMALTU
 70
     2
  9
$DIMALTTD
 70
     3
  9
$DIMTXSTY
  7
Standard
  9
$DIMAUNIT
 70
     0
  9
$DIMADEC
 70
     2
  9
$DIMALTRND
 40
0.0
  9
$DIMAZIN
 70
     0
  9
$DIMDSEP
 70
    44
  9
$DIMATFIT
 70
     3
  9
$DIMFRAC
 70
     0
  9
$DIMLDRBLK
  1

  9
$DIMLUNIT
 70
     2
  9
$DIMLWD
 70
    -2
  9
$DIMLWE
 70
    -2
  9
$DIMTMOVE
 70
     0
  9
$LUNITS
 70
     2
  9
$LUPREC
 70
     2
  9
$SKETCHINC
 40
1.0
  9
$FILLETRAD
 40
10.0
  9
$AUNITS
 70
     0
  9
$AUPREC
 70
     2
  9
$MENU
  1
.
  9
$ELEVATION
 40
0.0
  9
$PELEVATION
 40
0.0
  9
$THICKNESS
 40
0.0
  9
$LIMCHECK
 70
     0
  9
$CHAMFERA
 40
10.0
  9
$CHAMFERB
 40
10.0
  9
$CHAMFERC
 40
20.0
  9
$CHAMFERD
 40
0.0
  9
$SKPOLY
 70
     0
  9
$TDCREATE
 40
2456631.778508079
  9
$TDUCREATE
 40
2456631.736841412
  9
$TDUPDATE
 40
2456631.779466921
  9
$TDUUPDATE
 40
2456631.737800254
  9
$TDINDWG
 40
0.0000000116
  9
$TDUSRTIMER
 40
0.0000000116
  9
$USRTIMER
 70
     1
  9
$ANGBASE
 50
0.0
  9
$ANGDIR
 70
     0
  9
$PDMODE
 70
     0
  9
$PDSIZE
 40
-1.0
  9
$PLINEWID
 40
0.0
  9
$SPLFRAME
 70
     0
  9
$SPLINETYPE
 70
     6
  9
$SPLINESEGS
 70
     8
  9
$HANDSEED
  5
3F5
  9
$SURFTAB1
 70
     6
  9
$SURFTAB2
 70
     6
  9
$SURFTYPE
 70
     6
  9
$SURFU
 70
     6
  9
$SURFV
 70
     6
  9
$UCSBASE
  2

  9
$UCSNAME
  2

  9
$UCSORG
 10
0.0
 20
0.0
 30
0.0
  9
$UCSXDIR
 10
1.0
 20
0.0
 30
0.0
  9
$UCSYDIR
 10
0.0
 20
1.0
 30
0.0
  9
$UCSORTHOREF
  2

  9
$UCSORTHOVIEW
 70
     0
  9
$UCSORGTOP
 10
0.0
 20
0.0
 30
0.0
  9
$UCSORGBOTTOM
 10
0.0
 20
0.0
 30
0.0
  9
$UCSORGLEFT
 10
0.0
 20
0.0
 30
0.0
  9
$UCSORGRIGHT
 10
0.0
 20
0.0
 30
0.0
  9
$UCSORGFRONT
 10
0.0
 20
0.0
 30
0.0
  9
$UCSORGBACK
 10
0.0
 20
0.0
 30
0.0
  9
$PUCSBASE
  2

  9
$PUCSNAME
  2

  9
$PUCSORG
 10
0.0
 20
0.0
 30
0.0
  9
$PUCSXDIR
 10
1.0
 20
0.0
 30
0.0
  9
$PUCSYDIR
 10
0.0
 20
1.0
 30
0.0
  9
$PUCSORTHOREF
  2

  9
$PUCSORTHOVIEW
 70
     0
  9
$PUCSORGTOP
 10
0.0
 20
0.0
 30
0.0
  9
$PUCSORGBOTTOM
 10
0.0
 20
0.0
 30
0.0
  9
$PUCSORGLEFT
 10
0.0
 20
0.0
 30
0.0
  9
$PUCSORGRIGHT
 10
0.0
 20
0.0
 30
0.0
  9
$PUCSORGFRONT
 10
0.0
 20
0.0
 30
0.0
  9
$PUCSORGBACK
 10
0.0
 20
0.0
 30
0.0
  9
$USERI1
 70
     0
  9
$USERI2
 70
     0
  9
$USERI3
 70
     0
  9
$USERI4
 70
     0
  9
$USERI5
 70
     0
  9
$USERR1
 40
0.0
  9
$USERR2
 40
0.0
  9
$USERR3
 40
0.0
  9
$USERR4
 40
0.0
  9
$USERR5
 40
0.0
  9
$WORLDVIEW
 70
     1
  9
$SHADEDGE
 70
     3
  9
$SHADEDIF
 70
    70
  9
$TILEMODE
 70
     0
  9
$MAXACTVP
 70
    64
  9
$PINSBASE
 10
0.0
 20
0.0
 30
0.0
  9
$PLIMCHECK
 70
     0
  9
$PEXTMIN
 10
-9.751493061
 20
-20.6468705971
 30
0.0
  9
$PEXTMAX
 10
10.3662233841
 20
6.8335860513
 30
0.0
  9
$PLIMMIN
 10
0.0
 20
0.0
  9
$PLIMMAX
 10
420.0
 20
297.0
  9
$UNITMODE
 70
     0
  9
$VISRETAIN
 70
     1
  9
$PLINEGEN
 70
     0
  9
$PSLTSCALE
 70
     1
  9
$TREEDEPTH
 70
  3020
  9
$CMLSTYLE
  2
Standard
  9
$CMLJUST
 70
     0
  9
$CMLSCALE
 40
20.0
  9
$PROXYGRAPHICS
 70
     1
  9
$MEASUREMENT
 70
     1
  9
$CELWEIGHT
370
    -1
  9
$ENDCAPS
280
     0
  9
$JOINSTYLE
280
     0
  9
$LWDISPLAY
290
     1
  9
$INSUNITS
 70
     4
  9
$HYPERLINKBASE
  1

  9
$STYLESHEET
  1

  9
$XEDIT
290
     1
  9
$CEPSNTYPE
380
     0
  9
$PSTYLEMODE
290
     1
  9
$FINGERPRINTGUID
  2
{904637FB-2E51-41AC-BE2B-CB54779D5C4D}
  9
$VERSIONGUID
  2
{FAEB1C32-E019-11D5-929B-00C0DF256EC4}
  9
$EXTNAMES
290
     1
  9
$PSVPSCALE
 40
0.0
  9
$OLESTARTUP
290
     0
  0
ENDSEC
  0
SECTION
  2
CLASSES
  0
CLASS
  1
ACDBDICTIONARYWDFLT
  2
AcDbDictionaryWithDefault
  3
ObjectDBX Classes
 90
        0
280
     0
281
     0
  0
CLASS
  1
VISUALSTYLE
  2
AcDbVisualStyle
  3
ObjectDBX Classes
 90
     4095
280
     0
281
     0
  0
CLASS
  1
MATERIAL
  2
AcDbMaterial
  3
ObjectDBX Classes
 90
     1153
280
     0
281
     0
  0
CLASS
  1
SCALE
  2
AcDbScale
  3
ObjectDBX Classes
 90
     1153
280
     0
281
     0
  0
CLASS
  1
DICTIONARYVAR
  2
AcDbDictionaryVar
  3
ObjectDBX Classes
 90
        0
280
     0
281
     0
  0
CLASS
  1
ACDBPLACEHOLDER
  2
AcDbPlaceHolder
  3
ObjectDBX Classes
 90
        0
280
     0
281
     0
  0
CLASS
  1
LAYOUT
  2
AcDbLayout
  3
ObjectDBX Classes
 90
        0
280
     0
281
     0
  0
ENDSEC
  0
SECTION
  2
TABLES
  0
TABLE
  2
VPORT
  5
8
330
0
100
AcDbSymbolTable
 70
     1
  0
VPORT
  5
29
330
8
100
AcDbSymbolTableRecord
100
AcDbViewportTableRecord
  2
*Active
 70
     0
 10
0.0
 20
0.0
 11
1.0
 21
1.0
 12
0.3073651616
 22
-6.9066422729
 13
0.0
 23
0.0
 14
10.0
 24
10.0
 15
10.0
 25
10.0
 16
0.0
 26
0.0
 36
1.0
 17
0.0
 27
0.0
 37
0.0
 40
28.0300657814
 41
0.7320735861
 42
50.0
 43
0.0
 44
0.0
 50
0.0
 51
0.0
 71
     0
 72
   100
 73
     1
 74
     3
 75
     0
 76
     0
 77
     0
 78
     0
281
     0
 65
     1
110
0.0
120
0.0
130
0.0
111
1.0
121
0.0
131
0.0
112
0.0
122
1.0
132
0.0
 79
     0
146
0.0
  0
ENDTAB
  0
TABLE
  2
LTYPE
  5
5
330
0
100
AcDbSymbolTable
 70
     6
  0
LTYPE
  5
14
330
5
100
AcDbSymbolTableRecord
100
AcDbLinetypeTableRecord
  2
ByBlock
 70
     0
  3

 72
    65
 73
     0
 40
0.0
  0
LTYPE
  5
15
330
5
100
AcDbSymbolTableRecord
100
AcDbLinetypeTableRecord
  2
ByLayer
 70
     0
  3

 72
    65
 73
     0
 40
0.0
  0
LTYPE
  5
16
330
5
100
AcDbSymbolTableRecord
100
AcDbLinetypeTableRecord
  2
Continuous
 70
     0
  3
Solid line
 72
    65
 73
     0
 40
0.0
  0
LTYPE
  5
3F
330
5
100
AcDbSymbolTableRecord
100
AcDbLinetypeTableRecord
  2
HIDDEN
 70
     0
  3
Hidden __ __ __ __ __ __ __ __ __ __ __ __ __ __
 72
    65
 73
     2
 40
1.905
 49
1.27
 74
     0
 49
-0.635
 74
     0
  0
LTYPE
  5
40
330
5
100
AcDbSymbolTableRecord
100
AcDbLinetypeTableRecord
  2
PHANTOM
 70
     0
  3
Phantom ______  __  __  ______  __  __  ______
 72
    65
 73
     6
 40
12.7
 49
6.35
 74
     0
 49
-1.27
 74
     0
 49
1.27
 74
     0
 49
-1.27
 74
     0
 49
1.27
 74
     0
 49
-1.27
 74
     0
  0
LTYPE
  5
41
330
5
100
AcDbSymbolTableRecord
100
AcDbLinetypeTableRecord
  2
CENTER
 70
     0
  3
Center ____ _ ____ _ ____ _ ____ _ ____ _ ____
 72
    65
 73
     4
 40
10.16
 49
6.35
 74
     0
 49
-1.27
 74
     0
 49
1.27
 74
     0
 49
-1.27
 74
     0
  0
LTYPE
  5
42
330
5
100
AcDbSymbolTableRecord
100
AcDbLinetypeTableRecord
  2
CENTERX2
 70
     0
  3
Center (2x) ________  __  ________  __  _____
 72
    65
 73
     4
 40
20.32
 49
12.7
 74
     0
 49
-2.54
 74
     0
 49
2.54
 74
     0
 49
-2.54
 74
     0
  0
LTYPE
  5
43
330
5
100
AcDbSymbolTableRecord
100
AcDbLinetypeTableRecord
  2
DOT2
 70
     0
  3
Dot (.5x) ........................................
 72
    65
 73
     2
 40
0.635
 49
0.0
 74
     0
 49
-0.635
 74
     0
  0
ENDTAB
  0
TABLE
  2
LAYER
  5
2
330
0
100
AcDbSymbolTable
 70
     1
  0
LAYER
  5
10
330
2
100
AcDbSymbolTableRecord
100
AcDbLayerTableRecord
  2
0
 70
     0
 62
     7
  6
Continuous
370
    -3
390
F
  0
ENDTAB
  0
TABLE
  2
STYLE
  5
3
330
0
100
AcDbSymbolTable
 70
     1
  0
STYLE
  5
11
330
3
100
AcDbSymbolTableRecord
100
AcDbTextStyleTableRecord
  2
Standard
 70
     0
 40
0.0
 41
1.0
 50
0.0
 71
     0
 42
3.5
  3
txt
  4

  0
ENDTAB
  0
TABLE
  2
VIEW
  5
6
330
0
100
AcDbSymbolTable
 70
     0
  0
ENDTAB
  0
TABLE
  2
UCS
  5
7
330
0
100
AcDbSymbolTable
 70
     0
  0
ENDTAB
  0
TABLE
  2
APPID
  5
9
330
0
100
AcDbSymbolTable
 70
     1
  0
APPID
  5
12
330
9
100
AcDbSymbolTableRecord
100
AcDbRegAppTableRecord
  2
ACAD
 70
     0
  0
ENDTAB
  0
TABLE
  2
DIMSTYLE
  5
A
330
0
100
AcDbSymbolTable
 70
     1
100
AcDbDimStyleTable
  0
DIMSTYLE
105
27
330
A
100
AcDbSymbolTableRecord
100
AcDbDimStyleTableRecord
  2
ISO-25
 70
     0
 41
2.5
 42
0.625
 43
3.75
 44
1.25
 73
     0
 74
     0
 77
     1
 78
     8
140
2.5
141
2.5
143
0.0393700787
147
0.625
171
     3
172
     1
178
     0
271
     2
272
     2
274
     3
278
    44
283
     0
284
     8
340
11
  0
ENDTAB
  0
TABLE
  2
BLOCK_RECORD
  5
1
330
0
100
AcDbSymbolTable
 70
     8
  0
BLOCK_RECORD
  5
1F
330
1
100
AcDbSymbolTableRecord
100
AcDbBlockTableRecord
  2
*Model_Space
340
22
  0
BLOCK_RECORD
  5
1B
330
1
100
AcDbSymbolTableRecord
100
AcDbBlockTableRecord
  2
*Paper_Space
340
1E
  0
BLOCK_RECORD
  5
23
330
1
100
AcDbSymbolTableRecord
100
AcDbBlockTableRecord
  2
*Paper_Space0
340
26
  0
BLOCK_RECORD
  5
29C
330
1
100
AcDbSymbolTableRecord
100
AcDbBlockTableRecord
  2
*Paper_Space1
340
29D
  0
BLOCK_RECORD
  5
2C7
330
1
100
AcDbSymbolTableRecord
100
AcDbBlockTableRecord
  2
*Paper_Space2
340
2C8
  0
BLOCK_RECORD
  5
2F1
330
1
100
AcDbSymbolTableRecord
100
AcDbBlockTableRecord
  2
*Paper_Space3
340
2F2
  0
BLOCK_RECORD
  5
314
330
1
100
AcDbSymbolTableRecord
100
AcDbBlockTableRecord
  2
*Paper_Space4
340
315
  0
BLOCK_RECORD
  5
334
330
1
100
AcDbSymbolTableRecord
100
AcDbBlockTableRecord
  2
*Paper_Space5
340
335
  0
BLOCK_RECORD
  5
366
330
1
100
AcDbSymbolTableRecord
100
AcDbBlockTableRecord
  2
*Paper_Space6
340
367
  0
BLOCK_RECORD
  5
397
330
1
100
AcDbSymbolTableRecord
100
AcDbBlockTableRecord
  2
*Paper_Space7
340
398
  0
ENDTAB
  0
ENDSEC
  0
SECTION
  2
BLOCKS
  0
BLOCK
  5
20
330
1F
100
AcDbEntity
  8
0
100
AcDbBlockBegin
  2
*Model_Space
 70
     0
 10
0.0
 20
0.0
 30
0.0
  3
*Model_Space
  1

  0
ENDBLK
  5
21
330
1F
100
AcDbEntity
  8
0
100
AcDbBlockEnd
  0
BLOCK
  5
1C
330
1B
100
AcDbEntity
 67
     1
  8
0
100
AcDbBlockBegin
  2
*Paper_Space
 70
     0
 10
0.0
 20
0.0
 30
0.0
  3
*Paper_Space
  1

  0
ENDBLK
  5
1D
330
1B
100
AcDbEntity
 67
     1
  8
0
100
AcDbBlockEnd
  0
BLOCK
  5
24
330
23
100
AcDbEntity
  8
0
100
AcDbBlockBegin
  2
*Paper_Space0
 70
     0
 10
0.0
 20
0.0
 30
0.0
  3
*Paper_Space0
  1

  0
LINE
  5
27D
330
23
100
AcDbEntity
  8
0
  6
CENTERX2
 62
     7
100
AcDbLine
 10
0.0
 20
0.0
 30
0.0
 11
-1.2466893708
 21
0.0
 31
0.0
  0
LINE
  5
27E
330
23
100
AcDbEntity
  8
0
  6
CENTERX2
 62
     7
100
AcDbLine
 10
-1.2466893708
 20
0.0
 30
0.0
 11
-0.3264875101
 21
0.0
 31
0.0
  0
LINE
  5
27F
330
23
100
AcDbEntity
  8
0
  6
Continuous
 62
     7
100
AcDbLine
 10
-0.3264875101
 20
0.0
 30
0.0
 11
-1.2466893708
 21
0.0
 31
0.0
  0
LINE
  5
280
330
23
100
AcDbEntity
  8
0
  6
Continuous
 62
     7
100
AcDbLine
 10
-1.2466893708
 20
0.0
 30
0.0
 11
-0.3264875101
 21
0.0
 31
0.0
  0
LINE
  5
281
330
23
100
AcDbEntity
  8
0
  6
Continuous
 62
     7
100
AcDbLine
 10
-0.3264875101
 20
0.0
 30
0.0
 11
-1.2466893708
 21
0.0
 31
0.0
  0
LINE
  5
282
330
23
100
AcDbEntity
  8
0
  6
Continuous
 62
     7
100
AcDbLine
 10
-1.2466893708
 20
0.0
 30
0.0
 11
1.2466893708
 21
0.0
 31
0.0
  0
LINE
  5
283
330
23
100
AcDbEntity
  8
0
  6
Continuous
 62
     7
100
AcDbLine
 10
-1.2466893708
 20
0.0
 30
0.0
 11
-0.3264875101
 21
0.0
 31
0.0
  0
LINE
  5
284
330
23
100
AcDbEntity
  8
0
  6
Continuous
 62
     7
100
AcDbLine
 10
-1.2466893708
 20
0.0
 30
0.0
 11
1.2466893708
 21
0.0
 31
0.0
  0
LINE
  5
285
330
23
100
AcDbEntity
  8
0
  6
Continuous
 62
     7
100
AcDbLine
 10
0.3264875101
 20
0.0
 30
0.0
 11
1.2466893708
 21
0.0
 31
0.0
  0
LINE
  5
286
330
23
100
AcDbEntity
  8
0
  6
Continuous
 62
     7
100
AcDbLine
 10
1.2466893708
 20
0.0
 30
0.0
 11
0.3264875101
 21
0.0
 31
0.0
  0
LINE
  5
287
330
23
100
AcDbEntity
  8
0
  6
Continuous
 62
     7
100
AcDbLine
 10
0.3264875101
 20
0.0
 30
0.0
 11
1.2466893708
 21
0.0
 31
0.0
  0
LINE
  5
288
330
23
100
AcDbEntity
  8
0
  6
Continuous
 62
     7
100
AcDbLine
 10
1.2466893708
 20
0.0
 30
0.0
 11
0.3264875101
 21
0.0
 31
0.0
  0
POINT
  5
289
330
23
100
AcDbEntity
  8
0
  6
Continuous
 62
     7
100
AcDbPoint
 10
0.0
 20
0.0
 30
0.0
  0
LINE
  5
293
330
23
100
AcDbEntity
  8
0
  6
Continuous
 62
     7
370
    15
100
AcDbLine
 10
-10.0
 20
-0.5693299424
 30
0.0
 11
-10.0
 21
-2.9940681478
 31
0.0
  0
LINE
  5
294
330
23
100
AcDbEntity
  8
0
  6
Continuous
 62
     7
370
    15
100
AcDbLine
 10
10.0
 20
-2.9940681478
 30
0.0
 11
10.0
 21
-0.5693299424
 31
0.0
  0
LINE
  5
295
330
23
100
AcDbEntity
  8
0
  6
Continuous
 62
     7
370
    15
100
AcDbLine
 10
-10.0
 20
-2.9940681478
 30
0.0
 11
10.0
 21
-2.9940681478
 31
0.0
  0
LINE
  5
296
330
23
100
AcDbEntity
  8
0
  6
Continuous
 62
     8
370
    15
100
AcDbLine
 10
10.0
 20
-0.5693299424
 30
0.0
 11
-10.0
 21
-0.5693299424
 31
0.0
  0
LINE
  5
297
330
23
100
AcDbEntity
  8
0
  6
Continuous
 62
     8
370
    15
100
AcDbLine
 10
-9.9072697915
 20
-0.4695945418
 30
0.0
 11
9.9072697915
 21
-0.4695945418
 31
0.0
  0
ARC
  5
298
330
23
100
AcDbEntity
  8
0
  6
Continuous
 62
     7
370
    15
100
AcDbCircle
 10
9.9
 20
-0.5693299424
 30
0.0
 40
0.1000000000000352
100
AcDbArc
 50
0.0
 51
85.8310386031
  0
ARC
  5
299
330
23
100
AcDbEntity
  8
0
  6
Continuous
 62
     7
370
    15
100
AcDbCircle
 10
-9.9
 20
-0.5693299424
 30
0.0
 40
0.0999999999999695
100
AcDbArc
 50
94.1689613969
 51
180.0
  0
ARC
  5
29A
330
23
100
AcDbEntity
  8
0
  6
Continuous
 62
     7
370
    15
100
AcDbCircle
 10
-4.2888863007
 20
-195.2288674583
 30
0.0
 40
195.2759719851911
100
AcDbArc
 50
85.831038603
 51
88.7414998271
  0
ARC
  5
29B
330
23
100
AcDbEntity
  8
0
  6
Continuous
 62
     7
370
    15
100
AcDbCircle
 10
4.2888863007
 20
-195.2288674584
 30
0.0
 40
195.2759719852207
100
AcDbArc
 50
91.2585001729
 51
94.168961397
  0
VIEWPORT
  5
3EB
330
23
100
AcDbEntity
  8
0
100
AcDbViewport
 10
0.0
 20
0.0
 30
0.0
 40
243.84
 41
204.216
 68
     1
 69
     1
 12
0.3073651616
 22
-6.9066422729
 13
0.0
 23
0.0
 14
10.0
 24
10.0
 15
10.0
 25
10.0
 16
0.0
 26
0.0
 36
1.0
 17
0.0
 27
0.0
 37
0.0
 42
50.0
 43
0.0
 44
0.0
 45
28.0300657814
 50
0.0
 51
0.0
 72
   100
 90
   557152
  1

281
     0
 71
     1
 74
     0
110
0.0
120
0.0
130
0.0
111
1.0
121
0.0
131
0.0
112
0.0
122
1.0
132
0.0
 79
     0
146
0.0
  0
ENDBLK
  5
25
330
23
100
AcDbEntity
  8
0
100
AcDbBlockEnd
  0
BLOCK
  5
29E
330
29C
100
AcDbEntity
  8
0
100
AcDbBlockBegin
  2
*Paper_Space1
 70
     0
 10
0.0
 20
0.0
 30
0.0
  3
*Paper_Space1
  1

  0
ARC
  5
2A0
330
29C
100
AcDbEntity
  8
0
  6
Continuous
 62
     7
100
AcDbCircle
 10
4.2888863007
 20
-195.2288674584
 30
0.0
 40
195.2759719852921
100
AcDbArc
 50
91.2585001729
 51
94.1962419567
  0
LINE
  5
2A1
330
29C
100
AcDbEntity
  8
0
  6
CENTERX2
 62
     7
100
AcDbLine
 10
0.0
 20
0.0
 30
0.0
 11
0.0
 21
-29.7560563569
 31
0.0
  0
LINE
  5
2A2
330
29C
100
AcDbEntity
  8
0
  6
Continuous
 62
     7
100
AcDbLine
 10
0.0
 20
0.0
 30
0.0
 11
0.0
 21
-2.9940681478
 31
0.0
  0
LINE
  5
2A3
330
29C
100
AcDbEntity
  8
0
  6
Continuous
 62
     7
100
AcDbLine
 10
0.0
 20
-2.9940681478
 30
0.0
 11
-10.0
 21
-2.9940681478
 31
0.0
  0
LINE
  5
2A4
330
29C
100
AcDbEntity
  8
0
  6
Continuous
 62
     7
100
AcDbLine
 10
-10.0
 20
-2.9940681478
 30
0.0
 11
-10.0
 21
-0.4763759132
 31
0.0
  0
LINE
  5
2A5
330
29C
100
AcDbEntity
  8
0
  6
CENTERX2
 62
     7
100
AcDbLine
 10
4.3767956044
 20
0.0
 30
0.0
 11
3.6713075111
 21
0.0
 31
0.0
  0
LINE
  5
2A6
330
29C
100
AcDbEntity
  8
0
  6
CENTERX2
 62
     7
100
AcDbLine
 10
3.6713075111
 20
0.0
 30
0.0
 11
0.3892542076
 21
0.0
 31
0.0
  0
LINE
  5
2A7
330
29C
100
AcDbEntity
  8
0
  6
Continuous
 62
     7
100
AcDbLine
 10
0.3892542076
 20
0.0
 30
0.0
 11
-0.3162338857
 21
0.0
 31
0.0
  0
LINE
  5
2A8
330
29C
100
AcDbEntity
  8
0
  6
Continuous
 62
     7
100
AcDbLine
 10
-0.3162338857
 20
0.0
 30
0.0
 11
-3.9970413288
 21
0.0
 31
0.0
  0
LINE
  5
2A9
330
29C
100
AcDbEntity
  8
0
  6
Continuous
 62
     7
100
AcDbLine
 10
-3.9970413288
 20
0.0
 30
0.0
 11
-4.7332028174
 21
0.0
 31
0.0
  0
LINE
  5
2AA
330
29C
100
AcDbEntity
  8
0
  6
Continuous
 62
     7
100
AcDbLine
 10
3.6713075111
 20
0.0
 30
0.0
 11
0.3892542076
 21
0.0
 31
0.0
  0
LINE
  5
2AB
330
29C
100
AcDbEntity
  8
0
  6
Continuous
 62
     7
100
AcDbLine
 10
3.6713075111
 20
0.0
 30
0.0
 11
4.3767956044
 21
0.0
 31
0.0
  0
LINE
  5
2AC
330
29C
100
AcDbEntity
  8
0
  6
CENTERX2
 62
     7
100
AcDbLine
 10
4.7675188693
 20
0.0
 30
0.0
 11
-5.2718788569
 21
0.0
 31
0.0
  0
LINE
  5
2AD
330
29C
100
AcDbEntity
  8
0
  6
Continuous
 62
     7
100
AcDbLine
 10
-3.9970413288
 20
0.0
 30
0.0
 11
-4.7332028174
 21
0.0
 31
0.0
  0
LINE
  5
2AE
330
29C
100
AcDbEntity
  8
0
  6
Continuous
 62
     7
100
AcDbLine
 10
-0.3162338857
 20
0.0
 30
0.0
 11
-3.9970413288
 21
0.0
 31
0.0
  0
LINE
  5
2AF
330
29C
100
AcDbEntity
  8
0
  6
Continuous
 62
     7
100
AcDbLine
 10
0.3892542076
 20
0.0
 30
0.0
 11
-0.3162338857
 21
0.0
 31
0.0
  0
LINE
  5
2B0
330
29C
100
AcDbEntity
  8
0
  6
Continuous
 62
     7
100
AcDbLine
 10
3.6713075111
 20
0.0
 30
0.0
 11
0.3892542076
 21
0.0
 31
0.0
  0
LINE
  5
2B1
330
29C
100
AcDbEntity
  8
0
  6
Continuous
 62
     7
100
AcDbLine
 10
3.6713075111
 20
0.0
 30
0.0
 11
4.3767956044
 21
0.0
 31
0.0
  0
POINT
  5
2B2
330
29C
100
AcDbEntity
  8
0
  6
Continuous
 62
     7
100
AcDbPoint
 10
-4.7332028174
 20
0.0
 30
0.0
  0
LINE
  5
2BE
330
29C
100
AcDbEntity
  8
0
  6
Continuous
 62
     7
370
    15
100
AcDbLine
 10
-10.0
 20
-0.5693299424
 30
0.0
 11
-10.0
 21
-2.9940681478
 31
0.0
  0
LINE
  5
2BF
330
29C
100
AcDbEntity
  8
0
  6
Continuous
 62
     7
370
    15
100
AcDbLine
 10
10.0
 20
-2.9940681478
 30
0.0
 11
10.0
 21
-0.5693299424
 31
0.0
  0
LINE
  5
2C0
330
29C
100
AcDbEntity
  8
0
  6
Continuous
 62
     7
370
    15
100
AcDbLine
 10
-10.0
 20
-2.9940681478
 30
0.0
 11
10.0
 21
-2.9940681478
 31
0.0
  0
LINE
  5
2C1
330
29C
100
AcDbEntity
  8
0
  6
Continuous
 62
     8
370
    15
100
AcDbLine
 10
10.0
 20
-0.5693299424
 30
0.0
 11
-10.0
 21
-0.5693299424
 31
0.0
  0
LINE
  5
2C2
330
29C
100
AcDbEntity
  8
0
  6
Continuous
 62
     8
370
    15
100
AcDbLine
 10
-9.9072697915
 20
-0.4695945418
 30
0.0
 11
9.9072697915
 21
-0.4695945418
 31
0.0
  0
ARC
  5
2C3
330
29C
100
AcDbEntity
  8
0
  6
Continuous
 62
     7
370
    15
100
AcDbCircle
 10
9.9
 20
-0.5693299424
 30
0.0
 40
0.1000000000000352
100
AcDbArc
 50
0.0
 51
85.8310386031
  0
ARC
  5
2C4
330
29C
100
AcDbEntity
  8
0
  6
Continuous
 62
     7
370
    15
100
AcDbCircle
 10
-9.9
 20
-0.5693299424
 30
0.0
 40
0.0999999999999695
100
AcDbArc
 50
94.1689613969
 51
180.0
  0
ARC
  5
2C5
330
29C
100
AcDbEntity
  8
0
  6
Continuous
 62
     7
370
    15
100
AcDbCircle
 10
-4.2888863007
 20
-195.2288674583
 30
0.0
 40
195.2759719851911
100
AcDbArc
 50
85.831038603
 51
88.7414998271
  0
ARC
  5
2C6
330
29C
100
AcDbEntity
  8
0
  6
Continuous
 62
     7
370
    15
100
AcDbCircle
 10
4.2888863007
 20
-195.2288674584
 30
0.0
 40
195.2759719852207
100
AcDbArc
 50
91.2585001729
 51
94.168961397
  0
VIEWPORT
  5
3EC
330
29C
100
AcDbEntity
  8
0
100
AcDbViewport
 10
0.0
 20
0.0
 30
0.0
 40
243.84
 41
204.216
 68
     1
 69
     1
 12
0.3073651616
 22
-6.9066422729
 13
0.0
 23
0.0
 14
10.0
 24
10.0
 15
10.0
 25
10.0
 16
0.0
 26
0.0
 36
1.0
 17
0.0
 27
0.0
 37
0.0
 42
50.0
 43
0.0
 44
0.0
 45
28.0300657814
 50
0.0
 51
0.0
 72
   100
 90
   557152
  1

281
     0
 71
     1
 74
     0
110
0.0
120
0.0
130
0.0
111
1.0
121
0.0
131
0.0
112
0.0
122
1.0
132
0.0
 79
     0
146
0.0
  0
ENDBLK
  5
29F
330
29C
100
AcDbEntity
  8
0
100
AcDbBlockEnd
  0
BLOCK
  5
2C9
330
2C7
100
AcDbEntity
  8
0
100
AcDbBlockBegin
  2
*Paper_Space2
 70
     0
 10
0.0
 20
0.0
 30
0.0
  3
*Paper_Space2
  1

  0
ARC
  5
2CB
330
2C7
100
AcDbEntity
  8
0
  6
Continuous
 62
     7
100
AcDbCircle
 10
-4.2888863007
 20
-195.2288674584
 30
0.0
 40
195.2759719852921
100
AcDbArc
 50
85.8037580433
 51
88.7414998271
  0
LINE
  5
2CC
330
2C7
100
AcDbEntity
  8
0
  6
CENTERX2
 62
     7
100
AcDbLine
 10
0.0
 20
0.0
 30
0.0
 11
0.0
 21
-29.7560563569
 31
0.0
  0
LINE
  5
2CD
330
2C7
100
AcDbEntity
  8
0
  6
Continuous
 62
     7
100
AcDbLine
 10
0.0
 20
0.0
 30
0.0
 11
0.0
 21
-2.9940681478
 31
0.0
  0
LINE
  5
2CE
330
2C7
100
AcDbEntity
  8
0
  6
Continuous
 62
     7
100
AcDbLine
 10
0.0
 20
-2.9940681478
 30
0.0
 11
10.0
 21
-2.9940681478
 31
0.0
  0
LINE
  5
2CF
330
2C7
100
AcDbEntity
  8
0
  6
Continuous
 62
     7
100
AcDbLine
 10
10.0
 20
-2.9940681478
 30
0.0
 11
10.0
 21
-0.4763759132
 31
0.0
  0
LINE
  5
2D0
330
2C7
100
AcDbEntity
  8
0
  6
CENTERX2
 62
     7
100
AcDbLine
 10
-4.3767956044
 20
0.0
 30
0.0
 11
-3.6713075111
 21
0.0
 31
0.0
  0
LINE
  5
2D1
330
2C7
100
AcDbEntity
  8
0
  6
CENTERX2
 62
     7
100
AcDbLine
 10
-3.6713075111
 20
0.0
 30
0.0
 11
-0.3892542076
 21
0.0
 31
0.0
  0
LINE
  5
2D2
330
2C7
100
AcDbEntity
  8
0
  6
Continuous
 62
     7
100
AcDbLine
 10
-0.3892542076
 20
0.0
 30
0.0
 11
0.3162338857
 21
0.0
 31
0.0
  0
LINE
  5
2D3
330
2C7
100
AcDbEntity
  8
0
  6
Continuous
 62
     7
100
AcDbLine
 10
0.3162338857
 20
0.0
 30
0.0
 11
3.9970413288
 21
0.0
 31
0.0
  0
LINE
  5
2D4
330
2C7
100
AcDbEntity
  8
0
  6
Continuous
 62
     7
100
AcDbLine
 10
3.9970413288
 20
0.0
 30
0.0
 11
4.7332028174
 21
0.0
 31
0.0
  0
LINE
  5
2D5
330
2C7
100
AcDbEntity
  8
0
  6
Continuous
 62
     7
100
AcDbLine
 10
-3.6713075111
 20
0.0
 30
0.0
 11
-0.3892542076
 21
0.0
 31
0.0
  0
LINE
  5
2D6
330
2C7
100
AcDbEntity
  8
0
  6
Continuous
 62
     7
100
AcDbLine
 10
-3.6713075111
 20
0.0
 30
0.0
 11
-4.3767956044
 21
0.0
 31
0.0
  0
LINE
  5
2D7
330
2C7
100
AcDbEntity
  8
0
  6
CENTERX2
 62
     7
100
AcDbLine
 10
-4.7675188693
 20
0.0
 30
0.0
 11
5.2718788569
 21
0.0
 31
0.0
  0
LINE
  5
2D8
330
2C7
100
AcDbEntity
  8
0
  6
Continuous
 62
     7
100
AcDbLine
 10
3.9970413288
 20
0.0
 30
0.0
 11
4.7332028174
 21
0.0
 31
0.0
  0
LINE
  5
2D9
330
2C7
100
AcDbEntity
  8
0
  6
Continuous
 62
     7
100
AcDbLine
 10
0.3162338857
 20
0.0
 30
0.0
 11
3.9970413288
 21
0.0
 31
0.0
  0
LINE
  5
2DA
330
2C7
100
AcDbEntity
  8
0
  6
Continuous
 62
     7
100
AcDbLine
 10
-0.3892542076
 20
0.0
 30
0.0
 11
0.3162338857
 21
0.0
 31
0.0
  0
LINE
  5
2DB
330
2C7
100
AcDbEntity
  8
0
  6
Continuous
 62
     7
100
AcDbLine
 10
-3.6713075111
 20
0.0
 30
0.0
 11
-0.3892542076
 21
0.0
 31
0.0
  0
LINE
  5
2DC
330
2C7
100
AcDbEntity
  8
0
  6
Continuous
 62
     7
100
AcDbLine
 10
-3.6713075111
 20
0.0
 30
0.0
 11
-4.3767956044
 21
0.0
 31
0.0
  0
POINT
  5
2DD
330
2C7
100
AcDbEntity
  8
0
  6
Continuous
 62
     7
100
AcDbPoint
 10
4.7332028174
 20
0.0
 30
0.0
  0
LINE
  5
2E8
330
2C7
100
AcDbEntity
  8
0
  6
Continuous
 62
     7
370
    15
100
AcDbLine
 10
-10.0
 20
-0.5693299424
 30
0.0
 11
-10.0
 21
-2.9940681478
 31
0.0
  0
LINE
  5
2E9
330
2C7
100
AcDbEntity
  8
0
  6
Continuous
 62
     7
370
    15
100
AcDbLine
 10
10.0
 20
-2.9940681478
 30
0.0
 11
10.0
 21
-0.5693299424
 31
0.0
  0
LINE
  5
2EA
330
2C7
100
AcDbEntity
  8
0
  6
Continuous
 62
     7
370
    15
100
AcDbLine
 10
-10.0
 20
-2.9940681478
 30
0.0
 11
10.0
 21
-2.9940681478
 31
0.0
  0
LINE
  5
2EB
330
2C7
100
AcDbEntity
  8
0
  6
Continuous
 62
     8
370
    15
100
AcDbLine
 10
10.0
 20
-0.5693299424
 30
0.0
 11
-10.0
 21
-0.5693299424
 31
0.0
  0
LINE
  5
2EC
330
2C7
100
AcDbEntity
  8
0
  6
Continuous
 62
     8
370
    15
100
AcDbLine
 10
-9.9072697915
 20
-0.4695945418
 30
0.0
 11
9.9072697915
 21
-0.4695945418
 31
0.0
  0
ARC
  5
2ED
330
2C7
100
AcDbEntity
  8
0
  6
Continuous
 62
     7
370
    15
100
AcDbCircle
 10
9.9
 20
-0.5693299424
 30
0.0
 40
0.1000000000000352
100
AcDbArc
 50
0.0
 51
85.8310386031
  0
ARC
  5
2EE
330
2C7
100
AcDbEntity
  8
0
  6
Continuous
 62
     7
370
    15
100
AcDbCircle
 10
-9.9
 20
-0.5693299424
 30
0.0
 40
0.0999999999999695
100
AcDbArc
 50
94.1689613969
 51
180.0
  0
ARC
  5
2EF
330
2C7
100
AcDbEntity
  8
0
  6
Continuous
 62
     7
370
    15
100
AcDbCircle
 10
-4.2888863007
 20
-195.2288674583
 30
0.0
 40
195.2759719851911
100
AcDbArc
 50
85.831038603
 51
88.7414998271
  0
ARC
  5
2F0
330
2C7
100
AcDbEntity
  8
0
  6
Continuous
 62
     7
370
    15
100
AcDbCircle
 10
4.2888863007
 20
-195.2288674584
 30
0.0
 40
195.2759719852207
100
AcDbArc
 50
91.2585001729
 51
94.168961397
  0
VIEWPORT
  5
3ED
330
2C7
100
AcDbEntity
  8
0
100
AcDbViewport
 10
0.0
 20
0.0
 30
0.0
 40
243.84
 41
204.216
 68
     1
 69
     1
 12
0.3073651616
 22
-6.9066422729
 13
0.0
 23
0.0
 14
10.0
 24
10.0
 15
10.0
 25
10.0
 16
0.0
 26
0.0
 36
1.0
 17
0.0
 27
0.0
 37
0.0
 42
50.0
 43
0.0
 44
0.0
 45
28.0300657814
 50
0.0
 51
0.0
 72
   100
 90
   557152
  1

281
     0
 71
     1
 74
     0
110
0.0
120
0.0
130
0.0
111
1.0
121
0.0
131
0.0
112
0.0
122
1.0
132
0.0
 79
     0
146
0.0
  0
ENDBLK
  5
2CA
330
2C7
100
AcDbEntity
  8
0
100
AcDbBlockEnd
  0
BLOCK
  5
2F3
330
2F1
100
AcDbEntity
  8
0
100
AcDbBlockBegin
  2
*Paper_Space3
 70
     0
 10
0.0
 20
0.0
 30
0.0
  3
*Paper_Space3
  1

  0
LINE
  5
2F5
330
2F1
100
AcDbEntity
  8
0
  6
CENTERX2
 62
     7
100
AcDbLine
 10
0.0
 20
0.0
 30
0.0
 11
1.2466893708
 21
0.0
 31
0.0
  0
LINE
  5
2F6
330
2F1
100
AcDbEntity
  8
0
  6
CENTERX2
 62
     7
100
AcDbLine
 10
1.2466893708
 20
0.0
 30
0.0
 11
0.3264875101
 21
0.0
 31
0.0
  0
LINE
  5
2F7
330
2F1
100
AcDbEntity
  8
0
  6
Continuous
 62
     7
100
AcDbLine
 10
0.3264875101
 20
0.0
 30
0.0
 11
1.2466893708
 21
0.0
 31
0.0
  0
LINE
  5
2F8
330
2F1
100
AcDbEntity
  8
0
  6
Continuous
 62
     7
100
AcDbLine
 10
1.2466893708
 20
0.0
 30
0.0
 11
0.3264875101
 21
0.0
 31
0.0
  0
LINE
  5
2F9
330
2F1
100
AcDbEntity
  8
0
  6
Continuous
 62
     7
100
AcDbLine
 10
0.3264875101
 20
0.0
 30
0.0
 11
1.2466893708
 21
0.0
 31
0.0
  0
LINE
  5
2FA
330
2F1
100
AcDbEntity
  8
0
  6
Continuous
 62
     7
100
AcDbLine
 10
1.2466893708
 20
0.0
 30
0.0
 11
-1.2466893708
 21
0.0
 31
0.0
  0
LINE
  5
2FB
330
2F1
100
AcDbEntity
  8
0
  6
Continuous
 62
     7
100
AcDbLine
 10
1.2466893708
 20
0.0
 30
0.0
 11
0.3264875101
 21
0.0
 31
0.0
  0
LINE
  5
2FC
330
2F1
100
AcDbEntity
  8
0
  6
Continuous
 62
     7
100
AcDbLine
 10
1.2466893708
 20
0.0
 30
0.0
 11
-1.2466893708
 21
0.0
 31
0.0
  0
LINE
  5
2FD
330
2F1
100
AcDbEntity
  8
0
  6
Continuous
 62
     7
100
AcDbLine
 10
-0.3264875101
 20
0.0
 30
0.0
 11
-1.2466893708
 21
0.0
 31
0.0
  0
LINE
  5
2FE
330
2F1
100
AcDbEntity
  8
0
  6
Continuous
 62
     7
100
AcDbLine
 10
-1.2466893708
 20
0.0
 30
0.0
 11
-0.3264875101
 21
0.0
 31
0.0
  0
LINE
  5
2FF
330
2F1
100
AcDbEntity
  8
0
  6
Continuous
 62
     7
100
AcDbLine
 10
-0.3264875101
 20
0.0
 30
0.0
 11
-1.2466893708
 21
0.0
 31
0.0
  0
LINE
  5
300
330
2F1
100
AcDbEntity
  8
0
  6
Continuous
 62
     7
100
AcDbLine
 10
-1.2466893708
 20
0.0
 30
0.0
 11
-0.3264875101
 21
0.0
 31
0.0
  0
POINT
  5
301
330
2F1
100
AcDbEntity
  8
0
  6
Continuous
 62
     7
100
AcDbPoint
 10
0.0
 20
0.0
 30
0.0
  0
LINE
  5
30B
330
2F1
100
AcDbEntity
  8
0
  6
Continuous
 62
     7
370
    15
100
AcDbLine
 10
-10.0
 20
-0.5693299424
 30
0.0
 11
-10.0
 21
-2.9940681478
 31
0.0
  0
LINE
  5
30C
330
2F1
100
AcDbEntity
  8
0
  6
Continuous
 62
     7
370
    15
100
AcDbLine
 10
10.0
 20
-2.9940681478
 30
0.0
 11
10.0
 21
-0.5693299424
 31
0.0
  0
LINE
  5
30D
330
2F1
100
AcDbEntity
  8
0
  6
Continuous
 62
     7
370
    15
100
AcDbLine
 10
-10.0
 20
-2.9940681478
 30
0.0
 11
10.0
 21
-2.9940681478
 31
0.0
  0
LINE
  5
30E
330
2F1
100
AcDbEntity
  8
0
  6
Continuous
 62
     8
370
    15
100
AcDbLine
 10
10.0
 20
-0.5693299424
 30
0.0
 11
-10.0
 21
-0.5693299424
 31
0.0
  0
LINE
  5
30F
330
2F1
100
AcDbEntity
  8
0
  6
Continuous
 62
     8
370
    15
100
AcDbLine
 10
-9.9072697915
 20
-0.4695945418
 30
0.0
 11
9.9072697915
 21
-0.4695945418
 31
0.0
  0
ARC
  5
310
330
2F1
100
AcDbEntity
  8
0
  6
Continuous
 62
     7
370
    15
100
AcDbCircle
 10
9.9
 20
-0.5693299424
 30
0.0
 40
0.1000000000000352
100
AcDbArc
 50
0.0
 51
85.8310386031
  0
ARC
  5
311
330
2F1
100
AcDbEntity
  8
0
  6
Continuous
 62
     7
370
    15
100
AcDbCircle
 10
-9.9
 20
-0.5693299424
 30
0.0
 40
0.0999999999999695
100
AcDbArc
 50
94.1689613969
 51
180.0
  0
ARC
  5
312
330
2F1
100
AcDbEntity
  8
0
  6
Continuous
 62
     7
370
    15
100
AcDbCircle
 10
-4.2888863007
 20
-195.2288674583
 30
0.0
 40
195.2759719851911
100
AcDbArc
 50
85.831038603
 51
88.7414998271
  0
ARC
  5
313
330
2F1
100
AcDbEntity
  8
0
  6
Continuous
 62
     7
370
    15
100
AcDbCircle
 10
4.2888863007
 20
-195.2288674584
 30
0.0
 40
195.2759719852207
100
AcDbArc
 50
91.2585001729
 51
94.168961397
  0
VIEWPORT
  5
3EE
330
2F1
100
AcDbEntity
  8
0
100
AcDbViewport
 10
0.0
 20
0.0
 30
0.0
 40
243.84
 41
204.216
 68
     1
 69
     1
 12
0.3073651616
 22
-6.9066422729
 13
0.0
 23
0.0
 14
10.0
 24
10.0
 15
10.0
 25
10.0
 16
0.0
 26
0.0
 36
1.0
 17
0.0
 27
0.0
 37
0.0
 42
50.0
 43
0.0
 44
0.0
 45
28.0300657814
 50
0.0
 51
0.0
 72
   100
 90
   557152
  1

281
     0
 71
     1
 74
     0
110
0.0
120
0.0
130
0.0
111
1.0
121
0.0
131
0.0
112
0.0
122
1.0
132
0.0
 79
     0
146
0.0
  0
ENDBLK
  5
2F4
330
2F1
100
AcDbEntity
  8
0
100
AcDbBlockEnd
  0
BLOCK
  5
316
330
314
100
AcDbEntity
  8
0
100
AcDbBlockBegin
  2
*Paper_Space4
 70
     0
 10
0.0
 20
0.0
 30
0.0
  3
*Paper_Space4
  1

  0
LINE
  5
318
330
314
100
AcDbEntity
  8
0
  6
CENTERX2
 62
     7
100
AcDbLine
 10
-4.3767956044
 20
0.0
 30
0.0
 11
-4.3767956044
 21
1.2466893708
 31
0.0
  0
LINE
  5
319
330
314
100
AcDbEntity
  8
0
  6
CENTERX2
 62
     7
100
AcDbLine
 10
-4.3767956044
 20
1.2466893708
 30
0.0
 11
-3.6713075111
 21
1.2466893708
 31
0.0
  0
LINE
  5
31A
330
314
100
AcDbEntity
  8
0
  6
CENTERX2
 62
     7
100
AcDbLine
 10
-3.6713075111
 20
1.2466893708
 30
0.0
 11
-3.6713075111
 21
0.3264875101
 31
0.0
  0
LINE
  5
31B
330
314
100
AcDbEntity
  8
0
  6
CENTERX2
 62
     7
100
AcDbLine
 10
-3.6713075111
 20
0.3264875101
 30
0.0
 11
-0.3892542076
 21
0.3264875101
 31
0.0
  0
LINE
  5
31C
330
314
100
AcDbEntity
  8
0
  6
Continuous
 62
     7
100
AcDbLine
 10
-0.3892542076
 20
0.3264875101
 30
0.0
 11
-0.3892542076
 21
1.2466893708
 31
0.0
  0
LINE
  5
31D
330
314
100
AcDbEntity
  8
0
  6
Continuous
 62
     7
100
AcDbLine
 10
-0.3892542076
 20
1.2466893708
 30
0.0
 11
0.3162338857
 21
1.2466893708
 31
0.0
  0
LINE
  5
31E
330
314
100
AcDbEntity
  8
0
  6
Continuous
 62
     7
100
AcDbLine
 10
0.3162338857
 20
1.2466893708
 30
0.0
 11
0.3162338857
 21
0.3264875101
 31
0.0
  0
LINE
  5
31F
330
314
100
AcDbEntity
  8
0
  6
Continuous
 62
     7
100
AcDbLine
 10
0.3162338857
 20
0.3264875101
 30
0.0
 11
3.9970413288
 21
0.3264875101
 31
0.0
  0
LINE
  5
320
330
314
100
AcDbEntity
  8
0
  6
Continuous
 62
     7
100
AcDbLine
 10
3.9970413288
 20
0.3264875101
 30
0.0
 11
3.9970413288
 21
1.2466893708
 31
0.0
  0
LINE
  5
321
330
314
100
AcDbEntity
  8
0
  6
Continuous
 62
     7
100
AcDbLine
 10
3.9970413288
 20
1.2466893708
 30
0.0
 11
4.7332028174
 21
1.2466893708
 31
0.0
  0
LINE
  5
322
330
314
100
AcDbEntity
  8
0
  6
Continuous
 62
     7
100
AcDbLine
 10
4.7332028174
 20
1.2466893708
 30
0.0
 11
4.7332028174
 21
-1.2466893708
 31
0.0
  0
LINE
  5
323
330
314
100
AcDbEntity
  8
0
  6
Continuous
 62
     7
100
AcDbLine
 10
-3.6713075111
 20
1.2466893708
 30
0.0
 11
-3.6713075111
 21
0.3264875101
 31
0.0
  0
LINE
  5
324
330
314
100
AcDbEntity
  8
0
  6
Continuous
 62
     7
100
AcDbLine
 10
-3.6713075111
 20
0.3264875101
 30
0.0
 11
-0.3892542076
 21
0.3264875101
 31
0.0
  0
LINE
  5
325
330
314
100
AcDbEntity
  8
0
  6
Continuous
 62
     7
100
AcDbLine
 10
-3.6713075111
 20
1.2466893708
 30
0.0
 11
-4.3767956044
 21
1.2466893708
 31
0.0
  0
LINE
  5
326
330
314
100
AcDbEntity
  8
0
  6
Continuous
 62
     7
100
AcDbLine
 10
-4.3767956044
 20
1.2466893708
 30
0.0
 11
-4.3767956044
 21
-1.2466893708
 31
0.0
  0
LINE
  5
327
330
314
100
AcDbEntity
  8
0
  6
CENTERX2
 62
     7
100
AcDbLine
 10
-4.7675188693
 20
0.0
 30
0.0
 11
5.2718788569
 21
0.0
 31
0.0
  0
LINE
  5
328
330
314
100
AcDbEntity
  8
0
  6
Continuous
 62
     7
100
AcDbLine
 10
3.9970413288
 20
-1.2466893708
 30
0.0
 11
4.7332028174
 21
-1.2466893708
 31
0.0
  0
LINE
  5
329
330
314
100
AcDbEntity
  8
0
  6
Continuous
 62
     7
100
AcDbLine
 10
3.9970413288
 20
-0.3264875101
 30
0.0
 11
3.9970413288
 21
-1.2466893708
 31
0.0
  0
LINE
  5
32A
330
314
100
AcDbEntity
  8
0
  6
Continuous
 62
     7
100
AcDbLine
 10
0.3162338857
 20
-0.3264875101
 30
0.0
 11
3.9970413288
 21
-0.3264875101
 31
0.0
  0
LINE
  5
32B
330
314
100
AcDbEntity
  8
0
  6
Continuous
 62
     7
100
AcDbLine
 10
0.3162338857
 20
-1.2466893708
 30
0.0
 11
0.3162338857
 21
-0.3264875101
 31
0.0
  0
LINE
  5
32C
330
314
100
AcDbEntity
  8
0
  6
Continuous
 62
     7
100
AcDbLine
 10
-0.3892542076
 20
-1.2466893708
 30
0.0
 11
0.3162338857
 21
-1.2466893708
 31
0.0
  0
LINE
  5
32D
330
314
100
AcDbEntity
  8
0
  6
Continuous
 62
     7
100
AcDbLine
 10
-0.3892542076
 20
-0.3264875101
 30
0.0
 11
-0.3892542076
 21
-1.2466893708
 31
0.0
  0
LINE
  5
32E
330
314
100
AcDbEntity
  8
0
  6
Continuous
 62
     7
100
AcDbLine
 10
-3.6713075111
 20
-0.3264875101
 30
0.0
 11
-0.3892542076
 21
-0.3264875101
 31
0.0
  0
LINE
  5
32F
330
314
100
AcDbEntity
  8
0
  6
Continuous
 62
     7
100
AcDbLine
 10
-3.6713075111
 20
-1.2466893708
 30
0.0
 11
-3.6713075111
 21
-0.3264875101
 31
0.0
  0
LINE
  5
330
330
314
100
AcDbEntity
  8
0
  6
Continuous
 62
     7
100
AcDbLine
 10
-3.6713075111
 20
-1.2466893708
 30
0.0
 11
-4.3767956044
 21
-1.2466893708
 31
0.0
  0
POINT
  5
331
330
314
100
AcDbEntity
  8
0
  6
Continuous
 62
     7
100
AcDbPoint
 10
4.7332028174
 20
0.0
 30
0.0
  0
CIRCLE
  5
332
330
314
100
AcDbEntity
  8
0
  6
Continuous
 62
     7
370
    15
100
AcDbCircle
 10
0.0
 20
0.0
 30
0.0
 40
9.907269791540633
  0
CIRCLE
  5
333
330
314
100
AcDbEntity
  8
0
  6
Continuous
 62
     7
370
    15
100
AcDbCircle
 10
0.0
 20
0.0
 30
0.0
 40
9.999999999999998
  0
VIEWPORT
  5
3EF
330
314
100
AcDbEntity
  8
0
100
AcDbViewport
 10
0.0
 20
0.0
 30
0.0
 40
243.84
 41
204.216
 68
     1
 69
     1
 12
0.3073651616
 22
-6.9066422729
 13
0.0
 23
0.0
 14
10.0
 24
10.0
 15
10.0
 25
10.0
 16
0.0
 26
0.0
 36
1.0
 17
0.0
 27
0.0
 37
0.0
 42
50.0
 43
0.0
 44
0.0
 45
28.0300657814
 50
0.0
 51
0.0
 72
   100
 90
   557152
  1

281
     0
 71
     1
 74
     0
110
0.0
120
0.0
130
0.0
111
1.0
121
0.0
131
0.0
112
0.0
122
1.0
132
0.0
 79
     0
146
0.0
  0
ENDBLK
  5
317
330
314
100
AcDbEntity
  8
0
100
AcDbBlockEnd
  0
BLOCK
  5
336
330
334
100
AcDbEntity
  8
0
100
AcDbBlockBegin
  2
*Paper_Space5
 70
     0
 10
0.0
 20
0.0
 30
0.0
  3
*Paper_Space5
  1

  0
LWPOLYLINE
  5
338
330
334
100
AcDbEntity
  8
0
  6
Continuous
 62
     7
100
AcDbPolyline
 90
        9
 70
   128
 43
0.0
 10
0.0
 20
0.0
 10
0.8847009411
 20
-0.5364461298
 10
1.7692409665
 20
-1.0793465162
 10
2.6535837417
 20
-1.6286788583
 10
3.5376929404
 20
-2.1844205911
 10
4.421532246
 20
-2.7465488863
 10
5.3050653528
 20
-3.3150406533
 10
6.1882559677
 20
-3.88987254
 10
7.0710678119
 20
-4.471020934
  0
LINE
  5
339
330
334
100
AcDbEntity
  8
0
  6
CENTERX2
 62
     7
100
AcDbLine
 10
0.0
 20
0.0
 30
0.0
 11
0.0
 21
-24.2970344161
 31
0.0
  0
LINE
  5
33A
330
334
100
AcDbEntity
  8
0
  6
Continuous
 62
     7
100
AcDbLine
 10
0.0
 20
0.0
 30
0.0
 11
0.0
 21
-2.4447788362
 31
0.0
  0
LINE
  5
33B
330
334
100
AcDbEntity
  8
0
  6
Continuous
 62
     7
100
AcDbLine
 10
0.0
 20
-2.4447788362
 30
0.0
 11
7.0710678119
 21
-6.5268193953
 31
0.0
  0
LINE
  5
33C
330
334
100
AcDbEntity
  8
0
  6
Continuous
 62
     7
100
AcDbLine
 10
7.0710678119
 20
-6.5268193953
 30
0.0
 11
7.0710678119
 21
-4.471020934
 31
0.0
  0
LINE
  5
33D
330
334
100
AcDbEntity
  8
0
  6
CENTERX2
 62
     7
100
AcDbLine
 10
-3.0948618517
 20
1.7866257176
 30
0.0
 11
-2.2133193436
 21
2.2955293752
 31
0.0
  0
LINE
  5
33E
330
334
100
AcDbEntity
  8
0
  6
CENTERX2
 62
     7
100
AcDbLine
 10
-2.2133193436
 20
2.2955293752
 30
0.0
 11
-1.7144639288
 21
2.0075462742
 31
0.0
  0
LINE
  5
33F
330
334
100
AcDbEntity
  8
0
  6
CENTERX2
 62
     7
100
AcDbLine
 10
-1.7144639288
 20
2.0075462742
 30
0.0
 11
-2.3651449046
 21
1.6319161423
 31
0.0
  0
LINE
  5
340
330
334
100
AcDbEntity
  8
0
  6
CENTERX2
 62
     7
100
AcDbLine
 10
-2.3651449046
 20
1.6319161423
 30
0.0
 11
-0.0443827575
 21
0.2921686721
 31
0.0
  0
LINE
  5
341
330
334
100
AcDbEntity
  8
0
  6
Continuous
 62
     7
100
AcDbLine
 10
-0.0443827575
 20
0.2921686721
 30
0.0
 11
0.6062982183
 21
0.667798804
 31
0.0
  0
LINE
  5
342
330
334
100
AcDbEntity
  8
0
  6
Continuous
 62
     7
100
AcDbLine
 10
0.6062982183
 20
0.667798804
 30
0.0
 11
1.1051536331
 21
0.3798157029
 31
0.0
  0
LINE
  5
343
330
334
100
AcDbEntity
  8
0
  6
Continuous
 62
     7
100
AcDbLine
 10
1.1051536331
 20
0.3798157029
 30
0.0
 11
0.4544726573
 21
0.0041855711
 31
0.0
  0
LINE
  5
344
330
334
100
AcDbEntity
  8
0
  6
Continuous
 62
     7
100
AcDbLine
 10
0.4544726573
 20
0.0041855711
 30
0.0
 11
3.0571965606
 21
-1.4983349563
 31
0.0
  0
LINE
  5
345
330
334
100
AcDbEntity
  8
0
  6
Continuous
 62
     7
100
AcDbLine
 10
3.0571965606
 20
-1.4983349563
 30
0.0
 11
3.7078775364
 21
-1.1227048244
 31
0.0
  0
LINE
  5
346
330
334
100
AcDbEntity
  8
0
  6
Continuous
 62
     7
100
AcDbLine
 10
3.7078775364
 20
-1.1227048244
 30
0.0
 11
4.2284223171
 21
-1.4232089299
 31
0.0
  0
LINE
  5
347
330
334
100
AcDbEntity
  8
0
  6
Continuous
 62
     7
100
AcDbLine
 10
4.2284223171
 20
-1.4232089299
 30
0.0
 11
2.4653373008
 21
-2.4410162452
 31
0.0
  0
LINE
  5
348
330
334
100
AcDbEntity
  8
0
  6
Continuous
 62
     7
100
AcDbLine
 10
-1.7144639288
 20
2.0075462742
 30
0.0
 11
-2.3651449046
 21
1.6319161423
 31
0.0
  0
LINE
  5
349
330
334
100
AcDbEntity
  8
0
  6
Continuous
 62
     7
100
AcDbLine
 10
-2.3651449046
 20
1.6319161423
 30
0.0
 11
-0.0443827575
 21
0.2921686721
 31
0.0
  0
LINE
  5
34A
330
334
100
AcDbEntity
  8
0
  6
Continuous
 62
     7
100
AcDbLine
 10
-1.7144639288
 20
2.0075462742
 30
0.0
 11
-2.2133193436
 21
2.2955293752
 31
0.0
  0
LINE
  5
34B
330
334
100
AcDbEntity
  8
0
  6
Continuous
 62
     7
100
AcDbLine
 10
-2.2133193436
 20
2.2955293752
 30
0.0
 11
-3.9764043599
 21
1.27772206
 31
0.0
  0
LINE
  5
34C
330
334
100
AcDbEntity
  8
0
  6
CENTERX2
 62
     7
100
AcDbLine
 10
-3.3711449219
 20
1.9461205391
 30
0.0
 11
3.7277812893
 21
-2.1520023317
 31
0.0
  0
LINE
  5
34D
330
334
100
AcDbEntity
  8
0
  6
Continuous
 62
     7
100
AcDbLine
 10
1.9447925201
 20
-2.1405121397
 30
0.0
 11
2.4653373008
 21
-2.4410162452
 31
0.0
  0
LINE
  5
34E
330
334
100
AcDbEntity
  8
0
  6
Continuous
 62
     7
100
AcDbLine
 10
2.5954734959
 20
-1.7648820079
 30
0.0
 11
1.9447925201
 21
-2.1405121397
 31
0.0
  0
LINE
  5
34F
330
334
100
AcDbEntity
  8
0
  6
Continuous
 62
     7
100
AcDbLine
 10
-0.0072504073
 20
-0.2623614805
 30
0.0
 11
2.5954734959
 21
-1.7648820079
 31
0.0
  0
LINE
  5
350
330
334
100
AcDbEntity
  8
0
  6
Continuous
 62
     7
100
AcDbLine
 10
-0.6579313832
 20
-0.6379916124
 30
0.0
 11
-0.0072504073
 21
-0.2623614805
 31
0.0
  0
LINE
  5
351
330
334
100
AcDbEntity
  8
0
  6
Continuous
 62
     7
100
AcDbLine
 10
-1.156786798
 20
-0.3500085113
 30
0.0
 11
-0.6579313832
 21
-0.6379916124
 31
0.0
  0
LINE
  5
352
330
334
100
AcDbEntity
  8
0
  6
Continuous
 62
     7
100
AcDbLine
 10
-0.5061058221
 20
0.0256216205
 30
0.0
 11
-1.156786798
 21
-0.3500085113
 31
0.0
  0
LINE
  5
353
330
334
100
AcDbEntity
  8
0
  6
Continuous
 62
     7
100
AcDbLine
 10
-2.8268679693
 20
1.3653690907
 30
0.0
 11
-0.5061058221
 21
0.0256216205
 31
0.0
  0
LINE
  5
354
330
334
100
AcDbEntity
  8
0
  6
Continuous
 62
     7
100
AcDbLine
 10
-3.4775489451
 20
0.9897389589
 30
0.0
 11
-2.8268679693
 21
1.3653690907
 31
0.0
  0
LINE
  5
355
330
334
100
AcDbEntity
  8
0
  6
Continuous
 62
     7
100
AcDbLine
 10
-3.4775489451
 20
0.9897389589
 30
0.0
 11
-3.9764043599
 21
1.27772206
 31
0.0
  0
POINT
  5
356
330
334
100
AcDbEntity
  8
0
  6
Continuous
 62
     7
100
AcDbPoint
 10
3.3468798089
 20
-1.9321125875
 30
0.0
  0
SPLINE
  5
357
330
334
100
AcDbEntity
  8
0
  6
Continuous
 62
     7
370
    15
100
AcDbSpline
210
0.0
220
0.0
230
1.0
 70
     8
 71
     3
 72
    24
 73
    20
 74
     0
 42
0.00000001
 43
0.00000001
 12
1.0
 22
0.0
 32
0.0
 13
1.0
 23
0.0
 33
0.0
 40
0.0
 40
0.0
 40
0.0
 40
0.0
 40
0.0131478065572303
 40
0.0768361977229461
 40
0.1405824039734148
 40
0.2043965353880693
 40
0.2682836659745167
 40
0.3322441860253083
 40
0.3962745958313971
 40
0.4603685358894805
 40
0.5245178594889337
 40
0.5887136005359527
 40
0.6529467505281837
 40
0.7172088151199528
 40
0.7814921620948287
 40
0.8457901961568349
 40
0.9100974044738057
 40
0.9744093152671425
 40
0.9999999999999999
 40
0.9999999999999999
 40
0.9999999999999999
 40
0.9999999999999999
 10
9.908730946011172
 20
0.3147382100891168
 30
0.0
 10
9.905318724295725
 20
0.3314170307447059
 30
0.0
 10
9.885377592574525
 20
0.4288885866350414
 30
0.0
 10
9.831918073421384
 20
0.6057316247815308
 30
0.0
 10
9.747620082925796
 20
0.8446971691408718
 30
0.0
 10
9.644700613091478
 20
1.081264860449378
 30
0.0
 10
9.525226012755361
 20
1.315182624349069
 30
0.0
 10
9.388874457894286
 20
1.545992821764006
 30
0.0
 10
9.236009028374754
 20
1.773290521637043
 30
0.0
 10
9.066854372147922
 20
1.996658214016256
 30
0.0
 10
8.881717377218012
 20
2.215687549819829
 30
0.0
 10
8.680926761695007
 20
2.429977657912309
 30
0.0
 10
8.464845554150173
 20
2.639137991196709
 30
0.0
 10
8.233869890265302
 20
2.842792982831724
 30
0.0
 10
7.988407989622935
 20
3.040570896769923
 30
0.0
 10
7.72895223908004
 20
3.232150404176624
 30
0.0
 10
7.455799650739078
 20
3.417089024270504
 30
0.0
 10
7.227431312285255
 20
3.559663672244865
 30
0.0
 10
7.089589582247704
 20
3.640059354936796
 30
0.0
 10
7.050353070378646
 20
3.662943906351696
 30
0.0
  0
SPLINE
  5
358
330
334
100
AcDbEntity
  8
0
  6
Continuous
 62
     7
370
    15
100
AcDbSpline
210
0.0
220
0.0
230
1.0
 70
     8
 71
     3
 72
    61
 73
    57
 74
     0
 42
0.00000001
 43
0.00000001
 12
1.0
 22
0.0
 32
0.0
 13
1.0
 23
0.0
 33
0.0
 40
0.0
 40
0.0
 40
0.0
 40
0.0
 40
0.0099908558649928
 40
0.0289583198995264
 40
0.0479251191299464
 40
0.0668903890435054
 40
0.085853887604292
 40
0.104815478481977
 40
0.1237751083759375
 40
0.1427327883847332
 40
0.1616885789304422
 40
0.1806425777398088
 40
0.1995949103902774
 40
0.2185457229686924
 40
0.2374951764448116
 40
0.2564434424197573
 40
0.275390699964675
 40
0.2943371333140096
 40
0.3132829302199138
 40
0.3322282808087733
 40
0.3511733768084235
 40
0.3701184110356072
 40
0.3890635550105899
 40
0.4080089602853836
 40
0.4269548212074302
 40
0.4459013321080727
 40
0.4648486868386734
 40
0.4837970780794533
 40
0.5027466963077553
 40
0.5216977282988026
 40
0.5406503550055953
 40
0.5596047486310768
 40
0.5785610686645445
 40
0.5975194566053701
 40
0.6164800290411077
 40
0.6354428686865842
 40
0.6544080129302505
 40
0.6733754393835776
 40
0.6923450479043478
 40
0.711316638591241
 40
0.7302898853642592
 40
0.7492643050102813
 40
0.7682391417935133
 40
0.7872132139315743
 40
0.8061852505194682
 40
0.8251536672435541
 40
0.8441165466894255
 40
0.8630716415643521
 40
0.8820164133092375
 40
0.9009481198400021
 40
0.9198639646998781
 40
0.9387613141343829
 40
0.9576379773096783
 40
0.9764925282888594
 40
0.9953246291094175
 40
1.0
 40
1.0
 40
1.0
 40
1.0
 10
7.050353070378646
 20
3.662943906351696
 30
0.0
 10
6.997806882602309
 20
3.692875560213325
 30
0.0
 10
6.845502682072357
 20
3.779631932175818
 30
0.0
 10
6.584163839631146
 20
3.917544664085328
 30
0.0
 10
6.262994375547971
 20
4.073920924409792
 30
0.0
 10
5.930711509988355
 20
4.222199922116794
 30
0.0
 10
5.588119245883663
 20
4.362253731385072
 30
0.0
 10
5.235762286816751
 20
4.493812995087191
 30
0.0
 10
4.874274336246192
 20
4.616664962568374
 30
0.0
 10
4.504284425242403
 20
4.73060036813199
 30
0.0
 10
4.12644085389091
 20
4.835427991430095
 30
0.0
 10
3.741403563828897
 20
4.930971102530274
 30
0.0
 10
3.349844909530967
 20
5.017068764433594
 30
0.0
 10
2.952448123320318
 20
5.093575827388417
 30
0.0
 10
2.549906346275612
 20
5.160363257745681
 30
0.0
 10
2.142921460647727
 20
5.217318353933109
 30
0.0
 10
1.73220293411916
 20
5.264344963627302
 30
0.0
 10
1.318466625260371
 20
5.301363667040372
 30
0.0
 10
0.9024335694504844
 20
5.328311932239902
 30
0.0
 10
0.4848287456960358
 20
5.345144238274949
 30
0.0
 10
0.066379829705452
 20
5.351832165274422
 30
0.0
 10
-0.3521839006307582
 20
5.348364451664311
 30
0.0
 10
-0.770132678625959
 20
5.334747041708623
 30
0.0
 10
-1.186737834472498
 20
5.311003094935364
 30
0.0
 10
-1.60127322825871
 20
5.277172916493267
 30
0.0
 10
-2.013016654271493
 20
5.233313828161157
 30
0.0
 10
-2.421250774582384
 20
5.179500057412412
 30
0.0
 10
-2.825264350846806
 20
5.115822581762496
 30
0.0
 10
-3.224353457706701
 20
5.042388939498874
 30
0.0
 10
-3.617822673243556
 20
4.959323008151626
 30
0.0
 10
-4.004986241841009
 20
4.866764752599168
 30
0.0
 10
-4.385169204621205
 20
4.764869945389237
 30
0.0
 10
-4.757708492472484
 20
4.653809862730228
 30
0.0
 10
-5.121953976616624
 20
4.533770960716759
 30
0.0
 10
-5.477269471755916
 20
4.404954537743845
 30
0.0
 10
-5.823033687202654
 20
4.267576390775442
 30
0.0
 10
-6.158641122192797
 20
4.121866475187851
 30
0.0
 10
-6.483502903034309
 20
3.968068580285447
 30
0.0
 10
-6.797047562160938
 20
3.80644003519244
 30
0.0
 10
-7.098721762830864
 20
3.637251462422233
 30
0.0
 10
-7.387990978882309
 20
3.460786598625387
 30
0.0
 10
-7.664339756137688
 20
3.277342461619351
 30
0.0
 10
-7.927271564274124
 20
3.087230071060801
 30
0.0
 10
-8.176310645307094
 20
2.890774127053434
 30
0.0
 10
-8.411003245971102
 20
2.688313034927666
 30
0.0
 10
-8.630919211456009
 20
2.480198520032391
 30
0.0
 10
-8.83565267106746
 20
2.266796646846984
 30
0.0
 10
-9.0248225728098
 20
2.048487992986519
 30
0.0
 10
-9.198078635600636
 20
1.825668037198974
 30
0.0
 10
-9.355088776310984
 20
1.598745443210487
 30
0.0
 10
-9.495597099073843
 20
1.368145947359476
 30
0.0
 10
-9.619219742648514
 20
1.134292131563171
 30
0.0
 10
-9.726217320648564
 20
0.8976690318198831
 30
0.0
 10
-9.814626531138268
 20
0.6585655925316113
 30
0.0
 10
-9.871856014407372
 20
0.4782031127746559
 30
0.0
 10
-9.894025293121288
 20
0.3772155190743735
 30
0.0
 10
-9.898434512523435
 20
0.3571302261216437
 30
0.0
  0
LWPOLYLINE
  5
35B
330
334
100
AcDbEntity
  8
0
  6
Continuous
 62
     7
370
    15
100
AcDbPolyline
 90
      142
 70
   128
 43
0.0
 10
7.0054976526
 20
3.6607446035
 10
6.6864704057
 20
3.8368857526
 10
6.3541677908
 20
4.0046478294
 10
6.0092495639
 20
4.1636977578
 10
5.6524005282
 20
4.3137197589
 10
5.2843291744
 20
4.454415978
 10
4.9057662742
 20
4.5855070756
 10
4.5174634292
 20
4.7067327826
 10
4.1201915787
 20
4.8178524166
 10
3.7147394692
 20
4.9186453597
 10
3.3019120884
 20
5.008911497
 10
2.8825290667
 20
5.0884716133
 10
2.4574230504
 20
5.1571677495
 10
2.0274380481
 20
5.2148635156
 10
1.5934277552
 20
5.2614443622
 10
1.156253859
 20
5.2968178072
 10
0.7167843278
 20
5.32091362
 10
0.2758916877
 20
5.3336839605
 10
-0.1655487099
 20
5.3351034744
 10
-0.6066604258
 20
5.3251693433
 10
-1.0465676736
 20
5.3039012907
 10
-1.4843970581
 20
5.2713415422
 10
-1.9192793097
 20
5.2275547423
 10
-2.3503510099
 20
5.1726278254
 10
-2.7767563057
 20
5.1066698441
 10
-3.1976486089
 20
5.0298117516
 10
-3.6121922767
 20
4.9422061427
 10
-4.0195642712
 20
4.8440269502
 10
-4.4189557929
 20
4.7354690998
 10
-4.8095738868
 20
4.616748123
 10
-5.1906430171
 20
4.4880997293
 10
-5.561406606
 20
4.3497793383
 10
-5.921128537
 20
4.2020615722
 10
-6.2690946153
 20
4.0452397111
 10
-6.6046139866
 20
3.8796251101
 10
-6.9270205081
 20
3.7055465818
 10
-7.2356740717
 20
3.523349743
 10
-7.5299618741
 20
3.3333963286
 10
-7.8092996342
 20
3.1360634735
 10
-8.0731327528
 20
2.9317429639
 10
-8.3209374135
 20
2.7208404592
 10
-8.5522216233
 20
2.5037746869
 10
-8.7665261886
 20
2.2809766108
 10
-8.9634256277
 20
2.0528885761
 10
-9.1425290149
 20
1.8199634303
 10
-9.303480757
 20
1.5826636247
 10
-9.4459612992
 20
1.3414602963
 10
-9.5696877597
 20
1.0968323318
 10
-9.6744144909
 20
0.8492654174
 10
-9.7599335676
 20
0.5992510744
 10
-9.8260751996
 20
0.347285683
 10
-9.8727080689
 20
0.0938694973
 10
-9.8997395902
 20
-0.1604943485
 10
-9.9071160949
 20
-0.4153008383
 10
-9.8948229376
 20
-0.6700440776
 10
-9.8628845253
 20
-0.9242182972
 10
-9.8113642687
 20
-1.1773188578
 10
-9.7403644566
 20
-1.4288432515
 10
-9.6500260524
 20
-1.6782921
 10
-9.5405284147
 20
-1.9251701456
 10
-9.412088941
 20
-2.168987235
 10
-9.264962636
 20
-2.4092592918
 10
-9.0994416052
 20
-2.645509278
 10
-8.9158544754
 20
-2.8772681413
 10
-8.7145657418
 20
-3.1040757458
 10
-8.4959750446
 20
-3.325481786
 10
-8.2605163754
 20
-3.5410466808
 10
-8.0086572155
 20
-3.7503424459
 10
-7.7408976081
 20
-3.9529535441
 10
-7.457769165
 20
-4.1484777097
 10
-7.1598340115
 20
-4.3365267476
 10
-6.8476836704
 20
-4.5167273039
 10
-6.5219378872
 20
-4.688721607
 10
-6.1832434
 20
-4.8521681781
 10
-5.8322726553
 20
-5.0067425093
 10
-5.4697224732
 20
-5.1521377074
 10
-5.0963126634
 20
-5.2880651039
 10
-4.7127845966
 20
-5.4142548273
 10
-4.3198997322
 20
-5.5304563398
 10
-3.9184381067
 20
-5.636438934
 10
-3.5091967851
 20
-5.7319921911
 10
-3.0929882781
 20
-5.8169263992
 10
-2.6706389291
 20
-5.8910729291
 10
-2.2429872738
 20
-5.9542845698
 10
-1.8108823749
 20
-6.0064358204
 10
-1.3751821366
 20
-6.0474231396
 10
-0.9367516015
 20
-6.0771651506
 10
-0.4964612328
 20
-6.0956028036
 10
-0.0551851862
 20
-6.1026994922
 10
0.3862004254
 20
-6.0984411267
 10
0.8268192718
 20
-6.0828361616
 10
1.2657965451
 20
-6.0559155792
 10
1.7022606965
 20
-6.0177328278
 10
2.1353451668
 20
-5.9683637156
 10
2.564190107
 20
-5.9079062606
 10
2.9879440851
 20
-5.8364804953
 10
3.4057657768
 20
-5.7542282291
 10
3.8168256358
 20
-5.6613127661
 10
4.2203075408
 20
-5.5579185815
 10
4.6154104158
 20
-5.4442509548
 10
5.0013498206
 20
-5.3205355626
 10
5.3773595084
 20
-5.1870180303
 10
5.7426929466
 20
-5.0439634446
 10
6.0966247995
 20
-4.8916558273
 10
6.4384523682
 20
-4.7303975708
 10
6.7674969857
 20
-4.5605088387
 10
7.0831053643
 20
-4.3823269291
 10
7.3846508929
 20
-4.196205606
 10
7.6715348807
 20
-4.0025143958
 10
7.9431877462
 20
-3.8016378545
 10
8.1990701476
 20
-3.593974804
 10
8.4386740541
 20
-3.37993754
 10
8.6615237545
 20
-3.1599510137
 10
8.8671768012
 20
-2.9344519879
 10
9.0552248891
 20
-2.7038881701
 10
9.2252946662
 20
-2.4687173235
 10
9.3770484747
 20
-2.2294063579
 10
9.5101850214
 20
-1.9864304032
 10
9.6244399761
 20
-1.7402718655
 10
9.719586496
 20
-1.49141947
 10
9.7954356767
 20
-1.2403672899
 10
9.8518369265
 20
-0.9876137662
 10
9.8886782661
 20
-0.7336607176
 10
9.9058865503
 20
-0.4790123444
 10
9.9034276137
 20
-0.2241742273
 10
9.8813063382
 20
0.0303476762
 10
9.8395666437
 20
0.2840480364
 10
9.7782914004
 20
0.5364231548
 10
9.6976022647
 20
0.7869719637
 10
9.5976594373
 20
1.035197022
 10
9.4786613455
 20
1.2806055015
 10
9.3408442489
 20
1.5227101666
 10
9.1844817708
 20
1.7610303408
 10
9.0098843542
 20
1.9950928614
 10
8.8173986463
 20
2.2244330191
 10
8.6074068095
 20
2.44859548
 10
8.3803257633
 20
2.6671351906
 10
8.1366063559
 20
2.8796182603
 10
7.8767324699
 20
3.0856228236
 10
7.6012200605
 20
3.2847398777
 10
7.3106161324
 20
3.476574094
 10
7.0054976526
 20
3.6607446035
  0
LWPOLYLINE
  5
35E
330
334
100
AcDbEntity
  8
0
  6
Continuous
 62
     7
370
    15
100
AcDbPolyline
 90
       55
 70
   128
 43
0.0
 10
-7.0710678119
 20
-6.5268193953
 10
-6.751369844
 20
-6.7033863177
 10
-6.4184557526
 20
-6.8716168159
 10
-6.0729772326
 20
-7.0311815709
 10
-5.7156105745
 20
-7.1817682272
 10
-5.3470553404
 20
-7.3230820043
 10
-4.9680329943
 20
-7.4548462738
 10
-4.5792854903
 20
-7.5768031011
 10
-4.1815738199
 20
-7.6887137498
 10
-3.7756765224
 20
-7.7903591497
 10
-3.3623881608
 20
-7.8815403252
 10
-2.9425177665
 20
-7.9620787847
 10
-2.5168872555
 20
-8.0318168704
 10
-2.0863298194
 20
-8.0906180669
 10
-1.6516882948
 20
-8.1383672679
 10
-1.2138135128
 20
-8.1749710022
 10
-0.7735626338
 20
-8.2003576162
 10
-0.3317974697
 20
-8.2144774145
 10
0.1106172036
 20
-8.2173027569
 10
0.5528153385
 20
-8.2088281126
 10
0.9939313115
 20
-8.1890700712
 10
1.4331016172
 20
-8.1580673099
 10
1.8694665592
 20
-8.1158805182
 10
2.3021719326
 20
-8.0625922786
 10
2.7303706963
 20
-7.9983069053
 10
3.1532246312
 20
-7.9231502401
 10
3.5699059808
 20
-7.8372694056
 10
3.9795990718
 20
-7.7408325176
 10
4.3815019108
 20
-7.6340283558
 10
4.7748277539
 20
-7.5170659944
 10
5.1588066476
 20
-7.3901743926
 10
5.5326869349
 20
-7.2536019468
 10
5.8957367278
 20
-7.107616004
 10
6.2472453392
 20
-6.9525023384
 10
6.5865246744
 20
-6.7885645924
 10
6.9129105783
 20
-6.6161236818
 10
7.2257641351
 20
-6.4355171678
 10
7.5244729193
 20
-6.2470985961
 10
7.8084521944
 20
-6.0512368049
 10
8.0771460576
 20
-5.8483152029
 10
8.3300285282
 20
-5.6387310186
 10
8.5666045767
 20
-5.4228945229
 10
8.7864110944
 20
-5.2012282259
 10
8.9890177998
 20
-4.9741660498
 10
9.1740280808
 20
-4.7421524794
 10
9.341079771
 20
-4.5056416922
 10
9.4898458589
 20
-4.2650966693
 10
9.6200351278
 20
-4.0209882886
 10
9.7313927263
 20
-3.773794404
 10
9.8237006665
 20
-3.523998909
 10
9.8967782513
 20
-3.27209079
 10
9.9504824279
 20
-3.018563169
 10
9.9847080679
 20
-2.7639123382
 10
9.999388173
 20
-2.5086367886
 10
10.0
 20
-2.4447788362
  0
LWPOLYLINE
  5
360
330
334
100
AcDbEntity
  8
0
  6
Continuous
 62
     8
370
    15
100
AcDbPolyline
 90
       67
 70
   128
 43
0.0
 10
9.9103607466
 20
-1.2361059451
 10
9.8967782513
 20
-1.2921930872
 10
9.8237006665
 20
-1.5441012062
 10
9.7313927263
 20
-1.7938967012
 10
9.6200351278
 20
-2.0410905858
 10
9.4898458589
 20
-2.2851989665
 10
9.341079771
 20
-2.5257439894
 10
9.1740280808
 20
-2.7622547766
 10
8.9890177998
 20
-2.994268347
 10
8.7864110944
 20
-3.2213305231
 10
8.5666045767
 20
-3.4429968201
 10
8.3300285282
 20
-3.6588333158
 10
8.0771460576
 20
-3.8684175001
 10
7.8084521944
 20
-4.0713391021
 10
7.5244729193
 20
-4.2672008933
 10
7.2257641351
 20
-4.455619465
 10
6.9129105783
 20
-4.636225979
 10
6.5865246744
 20
-4.8086668896
 10
6.2472453392
 20
-4.9726046356
 10
5.8957367278
 20
-5.1277183012
 10
5.5326869349
 20
-5.273704244
 10
5.1588066476
 20
-5.4102766898
 10
4.7748277539
 20
-5.5371682915
 10
4.3815019108
 20
-5.654130653
 10
3.9795990718
 20
-5.7609348148
 10
3.5699059808
 20
-5.8573717028
 10
3.1532246312
 20
-5.9432525373
 10
2.7303706963
 20
-6.0184092025
 10
2.3021719326
 20
-6.0826945758
 10
1.8694665592
 20
-6.1359828154
 10
1.4331016172
 20
-6.1781696071
 10
0.9939313115
 20
-6.2091723684
 10
0.5528153385
 20
-6.2289304098
 10
0.1106172036
 20
-6.2374050541
 10
-0.3317974697
 20
-6.2345797117
 10
-0.7735626338
 20
-6.2204599134
 10
-1.2138135128
 20
-6.1950732994
 10
-1.6516882948
 20
-6.1584695651
 10
-2.0863298194
 20
-6.1107203641
 10
-2.5168872555
 20
-6.0519191676
 10
-2.9425177665
 20
-5.9821810819
 10
-3.3623881608
 20
-5.9016426224
 10
-3.7756765224
 20
-5.8104614469
 10
-4.1815738199
 20
-5.708816047
 10
-4.5792854903
 20
-5.5969053983
 10
-4.9680329943
 20
-5.474948571
 10
-5.3470553404
 20
-5.3431843014
 10
-5.7156105745
 20
-5.2018705244
 10
-6.0729772326
 20
-5.0512838681
 10
-6.4184557526
 20
-4.8917191131
 10
-6.751369844
 20
-4.7234886149
 10
-7.0710678119
 20
-4.5469216925
 10
-7.3769238325
 20
-4.3623639841
 10
-7.6683391782
 20
-4.1701767699
 10
-7.9447433899
 20
-3.9707362656
 10
-8.2055953934
 20
-3.7644328852
 10
-8.4503845585
 20
-3.5516704772
 10
-8.6786316991
 20
-3.3328655342
 10
-8.8898900105
 20
-3.1084463771
 10
-9.0837459447
 20
-2.8788523168
 10
-9.2598200198
 20
-2.6445327946
 10
-9.4177675622
 20
-2.4059465019
 10
-9.5572793824
 20
-2.1635604826
 10
-9.6780823794
 20
-1.9178492187
 10
-9.7799400757
 20
-1.6692937015
 10
-9.86265308
 20
-1.4183804902
 10
-9.9017190652
 20
-1.2722504648
  0
LINE
  5
361
330
334
100
AcDbEntity
  8
0
  6
Continuous
 62
     7
370
    15
100
AcDbLine
 10
-10.0
 20
-0.4648811334
 30
0.0
 11
-10.0
 21
-2.4447788362
 31
0.0
  0
LINE
  5
362
330
334
100
AcDbEntity
  8
0
  6
Continuous
 62
     7
370
    15
100
AcDbLine
 10
10.0
 20
-2.4447788362
 30
0.0
 11
10.0
 21
-0.4648811334
 31
0.0
  0
ARC
  5
363
330
334
100
AcDbEntity
  8
0
  6
Continuous
 62
     7
370
    15
100
AcDbCircle
 10
6.6288318197
 20
-0.4649011756
 30
0.0
 40
3.370932941286485
100
AcDbArc
 50
346.7746964206
 51
13.1144251494
  0
ARC
  5
364
330
334
100
AcDbEntity
  8
0
  6
Continuous
 62
     7
370
    15
100
AcDbCircle
 10
-6.6257622913
 20
-0.4648842143
 30
0.0
 40
3.37397881540707
100
AcDbArc
 50
166.1700546445
 51
193.8447593639
  0
ARC
  5
365
330
334
100
AcDbEntity
  8
0
  6
Continuous
 62
     7
370
    15
100
AcDbCircle
 10
-4.9997561468
 20
-1.9488195981
 30
0.0
 40
5.02478001085648
100
AcDbArc
 50
185.6644697481
 51
245.6556712095
  0
VIEWPORT
  5
3F0
330
334
100
AcDbEntity
  8
0
100
AcDbViewport
 10
0.0
 20
0.0
 30
0.0
 40
243.84
 41
204.216
 68
     1
 69
     1
 12
0.3073651616
 22
-6.9066422729
 13
0.0
 23
0.0
 14
10.0
 24
10.0
 15
10.0
 25
10.0
 16
0.0
 26
0.0
 36
1.0
 17
0.0
 27
0.0
 37
0.0
 42
50.0
 43
0.0
 44
0.0
 45
28.0300657814
 50
0.0
 51
0.0
 72
   100
 90
   557152
  1

281
     0
 71
     1
 74
     0
110
0.0
120
0.0
130
0.0
111
1.0
121
0.0
131
0.0
112
0.0
122
1.0
132
0.0
 79
     0
146
0.0
  0
ENDBLK
  5
337
330
334
100
AcDbEntity
  8
0
100
AcDbBlockEnd
  0
BLOCK
  5
368
330
366
100
AcDbEntity
  8
0
100
AcDbBlockBegin
  2
*Paper_Space6
 70
     0
 10
0.0
 20
0.0
 30
0.0
  3
*Paper_Space6
  1

  0
LWPOLYLINE
  5
36A
330
366
100
AcDbEntity
  8
0
  6
Continuous
 62
     7
100
AcDbPolyline
 90
        9
 70
   128
 43
0.0
 10
0.0
 20
0.0
 10
1.106545101
 20
-0.3277340362
 10
2.2128889356
 20
-0.6622862732
 10
3.3189860584
 20
-1.0036429686
 10
4.424791034
 20
-1.3517901004
 10
5.530258439
 20
-1.7067133678
 10
6.6353428641
 20
-2.0683981914
 10
7.7399989154
 20
-2.4368297144
 10
8.8441812168
 20
-2.8119928025
  0
LINE
  5
36B
330
366
100
AcDbEntity
  8
0
  6
CENTERX2
 62
     7
100
AcDbLine
 10
0.0
 20
0.0
 30
0.0
 11
0.0
 21
-25.5059185069
 31
0.0
  0
LINE
  5
36C
330
366
100
AcDbEntity
  8
0
  6
Continuous
 62
     7
100
AcDbLine
 10
0.0
 20
0.0
 30
0.0
 11
0.0
 21
-2.5664173123
 31
0.0
  0
LINE
  5
36D
330
366
100
AcDbEntity
  8
0
  6
Continuous
 62
     7
100
AcDbLine
 10
0.0
 20
-2.5664173123
 30
0.0
 11
8.8441812168
 21
-4.9700762592
 31
0.0
  0
LINE
  5
36E
330
366
100
AcDbEntity
  8
0
  6
Continuous
 62
     7
100
AcDbLine
 10
8.8441812168
 20
-4.9700762592
 30
0.0
 11
8.8441812168
 21
-2.8119928025
 31
0.0
  0
LINE
  5
36F
330
366
100
AcDbEntity
  8
0
  6
CENTERX2
 62
     7
100
AcDbLine
 10
-3.8709173474
 20
1.0520323913
 30
0.0
 11
-3.2890931666
 21
1.6199106284
 31
0.0
  0
LINE
  5
370
330
366
100
AcDbEntity
  8
0
  6
CENTERX2
 62
     7
100
AcDbLine
 10
-3.2890931666
 20
1.6199106284
 30
0.0
 11
-2.6651467123
 21
1.4503353517
 31
0.0
  0
LINE
  5
371
330
366
100
AcDbEntity
  8
0
  6
CENTERX2
 62
     7
100
AcDbLine
 10
-2.6651467123
 20
1.4503353517
 30
0.0
 11
-3.0946006776
 21
1.031175116
 31
0.0
  0
LINE
  5
372
330
366
100
AcDbEntity
  8
0
  6
CENTERX2
 62
     7
100
AcDbLine
 10
-3.0946006776
 20
1.031175116
 30
0.0
 11
-0.1918932597
 21
0.2422814373
 31
0.0
  0
LINE
  5
373
330
366
100
AcDbEntity
  8
0
  6
Continuous
 62
     7
100
AcDbLine
 10
-0.1918932597
 20
0.2422814373
 30
0.0
 11
0.2375607056
 21
0.661441673
 31
0.0
  0
LINE
  5
374
330
366
100
AcDbEntity
  8
0
  6
Continuous
 62
     7
100
AcDbLine
 10
0.2375607056
 20
0.661441673
 30
0.0
 11
0.86150716
 21
0.4918663963
 31
0.0
  0
LINE
  5
375
330
366
100
AcDbEntity
  8
0
  6
Continuous
 62
     7
100
AcDbLine
 10
0.86150716
 20
0.4918663963
 30
0.0
 11
0.4320531946
 21
0.0727061606
 31
0.0
  0
LINE
  5
376
330
366
100
AcDbEntity
  8
0
  6
Continuous
 62
     7
100
AcDbLine
 10
0.4320531946
 20
0.0727061606
 30
0.0
 11
3.6874259998
 21
-0.8120344136
 31
0.0
  0
LINE
  5
377
330
366
100
AcDbEntity
  8
0
  6
Continuous
 62
     7
100
AcDbLine
 10
3.6874259998
 20
-0.8120344136
 30
0.0
 11
4.1168799651
 21
-0.392874178
 31
0.0
  0
LINE
  5
378
330
366
100
AcDbEntity
  8
0
  6
Continuous
 62
     7
100
AcDbLine
 10
4.1168799651
 20
-0.392874178
 30
0.0
 11
4.7679545261
 21
-0.5698222928
 31
0.0
  0
LINE
  5
379
330
366
100
AcDbEntity
  8
0
  6
Continuous
 62
     7
100
AcDbLine
 10
4.7679545261
 20
-0.5698222928
 30
0.0
 11
3.6043061645
 21
-1.705578767
 31
0.0
  0
LINE
  5
37A
330
366
100
AcDbEntity
  8
0
  6
Continuous
 62
     7
100
AcDbLine
 10
-2.6651467123
 20
1.4503353517
 30
0.0
 11
-3.0946006776
 21
1.031175116
 31
0.0
  0
LINE
  5
37B
330
366
100
AcDbEntity
  8
0
  6
Continuous
 62
     7
100
AcDbLine
 10
-3.0946006776
 20
1.031175116
 30
0.0
 11
-0.1918932597
 21
0.2422814373
 31
0.0
  0
LINE
  5
37C
330
366
100
AcDbEntity
  8
0
  6
Continuous
 62
     7
100
AcDbLine
 10
-2.6651467123
 20
1.4503353517
 30
0.0
 11
-3.2890931666
 21
1.6199106284
 31
0.0
  0
LINE
  5
37D
330
366
100
AcDbEntity
  8
0
  6
Continuous
 62
     7
100
AcDbLine
 10
-3.2890931666
 20
1.6199106284
 30
0.0
 11
-4.4527415282
 21
0.4841541542
 31
0.0
  0
LINE
  5
37E
330
366
100
AcDbEntity
  8
0
  6
CENTERX2
 62
     7
100
AcDbLine
 10
-4.2164800834
 20
1.1459489384
 30
0.0
 11
4.6625451964
 21
-1.2671798781
 31
0.0
  0
LINE
  5
37F
330
366
100
AcDbEntity
  8
0
  6
Continuous
 62
     7
100
AcDbLine
 10
2.9532316035
 20
-1.5286306522
 30
0.0
 11
3.6043061645
 21
-1.705578767
 31
0.0
  0
LINE
  5
380
330
366
100
AcDbEntity
  8
0
  6
Continuous
 62
     7
100
AcDbLine
 10
3.3826855688
 20
-1.1094704165
 30
0.0
 11
2.9532316035
 21
-1.5286306522
 31
0.0
  0
LINE
  5
381
330
366
100
AcDbEntity
  8
0
  6
Continuous
 62
     7
100
AcDbLine
 10
0.1273127637
 20
-0.2247298423
 30
0.0
 11
3.3826855688
 21
-1.1094704165
 31
0.0
  0
LINE
  5
382
330
366
100
AcDbEntity
  8
0
  6
Continuous
 62
     7
100
AcDbLine
 10
-0.3021412016
 20
-0.643890078
 30
0.0
 11
0.1273127637
 21
-0.2247298423
 31
0.0
  0
LINE
  5
383
330
366
100
AcDbEntity
  8
0
  6
Continuous
 62
     7
100
AcDbLine
 10
-0.926087656
 20
-0.4743148012
 30
0.0
 11
-0.3021412016
 21
-0.643890078
 31
0.0
  0
LINE
  5
384
330
366
100
AcDbEntity
  8
0
  6
Continuous
 62
     7
100
AcDbLine
 10
-0.4966336906
 20
-0.0551545656
 30
0.0
 11
-0.926087656
 21
-0.4743148012
 31
0.0
  0
LINE
  5
385
330
366
100
AcDbEntity
  8
0
  6
Continuous
 62
     7
100
AcDbLine
 10
-3.3993411086
 20
0.7337391131
 30
0.0
 11
-0.4966336906
 21
-0.0551545656
 31
0.0
  0
LINE
  5
386
330
366
100
AcDbEntity
  8
0
  6
Continuous
 62
     7
100
AcDbLine
 10
-3.8287950739
 20
0.3145788775
 30
0.0
 11
-3.3993411086
 21
0.7337391131
 31
0.0
  0
LINE
  5
387
330
366
100
AcDbEntity
  8
0
  6
Continuous
 62
     7
100
AcDbLine
 10
-3.8287950739
 20
0.3145788775
 30
0.0
 11
-4.4527415282
 21
0.4841541542
 31
0.0
  0
POINT
  5
388
330
366
100
AcDbEntity
  8
0
  6
Continuous
 62
     7
100
AcDbPoint
 10
4.1861303453
 20
-1.1377005299
 30
0.0
  0
SPLINE
  5
389
330
366
100
AcDbEntity
  8
0
  6
Continuous
 62
     7
370
    15
100
AcDbSpline
210
0.0
220
0.0
230
1.0
 70
     8
 71
     3
 72
    31
 73
    27
 74
     0
 42
0.00000001
 43
0.00000001
 12
1.0
 22
0.0
 32
0.0
 13
1.0
 23
0.0
 33
0.0
 40
0.0
 40
0.0
 40
0.0
 40
0.0
 40
0.0304863198169201
 40
0.0733972033251096
 40
0.1163772829219533
 40
0.1594345633550331
 40
0.2025704419879369
 40
0.2457808240053855
 40
0.2890577090503126
 40
0.3323908602578843
 40
0.3757692651126131
 40
0.4191822343215968
 40
0.462620107537815
 40
0.5060746157164672
 40
0.5495389862636191
 40
0.5930078804664793
 40
0.6364765013792926
 40
0.6799418267074515
 40
0.7234020218767624
 40
0.7668558992107266
 40
0.8103027686829262
 40
0.8537423154374748
 40
0.8971745020280911
 40
0.940599492073932
 40
0.9840175917128356
 40
1.0
 40
1.0
 40
1.0
 40
1.0
 10
9.926474437907107
 20
0.1360900473454424
 30
0.0
 10
9.914470483086717
 20
0.1874995688408605
 30
0.0
 10
9.885570415189099
 20
0.3112703330625092
 30
0.0
 10
9.819675718718713
 20
0.5057223497527069
 30
0.0
 10
9.731859684272674
 20
0.7193016798211409
 30
0.0
 10
9.626292994241474
 20
0.930746343135931
 30
0.0
 10
9.503920868025242
 20
1.139745079298835
 30
0.0
 10
9.364721833887765
 20
1.345898742522635
 30
0.0
 10
9.20898650880073
 20
1.548826117438893
 30
0.0
 10
9.036974387401065
 20
1.748142936047206
 30
0.0
 10
8.849003475620842
 20
1.943474289957309
 30
0.0
 10
8.645421921759839
 20
2.134456475031335
 30
0.0
 10
8.426610760081621
 20
2.320739797688702
 30
0.0
 10
8.192978569346662
 20
2.501989440488464
 30
0.0
 10
7.944959036441579
 20
2.677885602604735
 30
0.0
 10
7.683010090461693
 20
2.848122100596141
 30
0.0
 10
7.407611321572166
 20
3.012406800461836
 30
0.0
 10
7.119262103889062
 20
3.170461297553308
 30
0.0
 10
6.818479179517436
 20
3.322021298489001
 30
0.0
 10
6.50579653661636
 20
3.466834285660605
 30
0.0
 10
6.18176892871162
 20
3.604662323607877
 30
0.0
 10
5.846959160909727
 20
3.735269252662915
 30
0.0
 10
5.501982949552891
 20
3.858468530343757
 30
0.0
 10
5.147338701460566
 20
3.973945319748675
 30
0.0
 10
4.860543473657395
 20
4.05918356242782
 30
0.0
 10
4.691889274086859
 20
4.105551815207567
 30
0.0
 10
4.646510869574962
 20
4.118027741312623
 30
0.0
  0
SPLINE
  5
38A
330
366
100
AcDbEntity
  8
0
  6
Continuous
 62
     7
370
    15
100
AcDbSpline
210
0.0
220
0.0
230
1.0
 70
     8
 71
     3
 72
    54
 73
    50
 74
     0
 42
0.00000001
 43
0.00000001
 12
1.0
 22
0.0
 32
0.0
 13
1.0
 23
0.0
 33
0.0
 40
0.0
 40
0.0
 40
0.0
 40
0.0
 40
0.0114025443197339
 40
0.0330628087147453
 40
0.0547214892508299
 40
0.0763776618786129
 40
0.0980315996034576
 40
0.1196835780917707
 40
0.1413338727780702
 40
0.1629827572734916
 40
0.1846305026034401
 40
0.206277377051878
 40
0.227923646443347
 40
0.2495695747334685
 40
0.271215424807273
 40
0.2928614175346415
 40
0.3145077706695604
 40
0.3361547491145892
 40
0.3578026202073206
 40
0.3794516545325781
 40
0.4011021265411718
 40
0.4227543148672954
 40
0.4444085022142977
 40
0.4660649746384455
 40
0.4877240200061508
 40
0.5093859253284828
 40
0.531050972583704
 40
0.5527194325190165
 40
0.5743915557723345
 40
0.5960675604700049
 40
0.6177476152363063
 40
0.6394318163019589
 40
0.6611201571409193
 40
0.6828124888403184
 40
0.7045084692995452
 40
0.7262074995036528
 40
0.7479086457562839
 40
0.7696103254587706
 40
0.7913101151248062
 40
0.8130052654966449
 40
0.8346922797463567
 40
0.8563668780294181
 40
0.8780240489296139
 40
0.8996582350572998
 40
0.9212636987854792
 40
0.9428350948682735
 40
0.9643682328743869
 40
0.9858609453980025
 40
1.0
 40
1.0
 40
1.0
 40
1.0
 10
4.646510869574962
 20
4.118027741312623
 30
0.0
 10
4.581246613947103
 20
4.135479084405022
 30
0.0
 10
4.392006428666726
 20
4.186080985375566
 30
0.0
 10
4.07276873958986
 20
4.263629403553234
 30
0.0
 10
3.686996690202464
 20
4.347816736284233
 30
0.0
 10
3.294684623501067
 20
4.423448109689315
 30
0.0
 10
2.896666714403446
 20
4.490532922632068
 30
0.0
 10
2.49359751916877
 20
4.548922046953732
 30
0.0
 10
2.08618923813026
 20
4.598527459639764
 30
0.0
 10
1.67514854650822
 20
4.639263273641374
 30
0.0
 10
1.261191981877211
 20
4.671061783081608
 30
0.0
 10
0.8450402547159853
 20
4.693869370601222
 30
0.0
 10
0.4274181818025996
 20
4.707647767838013
 30
0.0
 10
0.0090530949284524
 20
4.71237383846132
 30
0.0
 10
-0.4093260849598827
 20
4.70803971590094
 30
0.0
 10
-0.8269901338080867
 20
4.694652832486486
 30
0.0
 10
-1.243211108466177
 20
4.672235927271562
 30
0.0
 10
-1.657263908275232
 20
4.640826962471389
 30
0.0
 10
-2.068427573768731
 20
4.60047900037716
 30
0.0
 10
-2.475986261980438
 20
4.551260088805201
 30
0.0
 10
-2.879230500886964
 20
4.493253101807287
 30
0.0
 10
-3.277458425327217
 20
4.426555545138877
 30
0.0
 10
-3.669976989547997
 20
4.351279327052097
 30
0.0
 10
-4.056103151240961
 20
4.267550495266424
 30
0.0
 10
-4.435165021375484
 20
4.175508941497093
 30
0.0
 10
-4.806502973506209
 20
4.075308075652433
 30
0.0
 10
-5.169470705511948
 20
3.967114472858841
 30
0.0
 10
-5.523436245951363
 20
3.851107497939441
 30
0.0
 10
-5.867782896470515
 20
3.727478914000373
 30
0.0
 10
-6.201910101103429
 20
3.596432484534501
 30
0.0
 10
-6.525234233095409
 20
3.458183582122968
 30
0.0
 10
-6.837189290433302
 20
3.312958821586662
 30
0.0
 10
-7.137227493118149
 20
3.160995741435412
 30
0.0
 10
-7.424819779380063
 20
3.002542564674
 30
0.0
 10
-7.699456205083783
 20
2.837858078021834
 30
0.0
 10
-7.960646264353145
 20
2.667211676665068
 30
0.0
 10
-8.207918316991377
 20
2.490884230204772
 30
0.0
 10
-8.440819045555594
 20
2.309169591969346
 30
0.0
 10
-8.658915548143291
 20
2.122374779147016
 30
0.0
 10
-8.861797054208012
 20
1.93082058547087
 30
0.0
 10
-9.049076388133097
 20
1.734841976977396
 30
0.0
 10
-9.220392779564095
 20
1.534790537614874
 30
0.0
 10
-9.375407399314824
 20
1.331034926680465
 30
0.0
 10
-9.513834600182086
 20
1.123963234609867
 30
0.0
 10
-9.635344094865127
 20
0.9139739903440295
 30
0.0
 10
-9.739946499410257
 20
0.7015025935355813
 30
0.0
 10
-9.826578881406048
 20
0.4869068569537968
 30
0.0
 10
-9.890240730175517
 20
0.2953729254431879
 30
0.0
 10
-9.91752338777813
 20
0.1749064295074182
 30
0.0
 10
-9.928349429163363
 20
0.1271040750032886
 30
0.0
  0
LWPOLYLINE
  5
38D
330
366
100
AcDbEntity
  8
0
  6
Continuous
 62
     7
370
    15
100
AcDbPolyline
 90
      142
 70
   128
 43
0.0
 10
4.6236771286
 20
4.110329537
 10
4.2287601489
 20
4.2119321388
 10
3.8254473573
 20
4.3043731707
 10
3.4145394942
 20
4.3874690998
 10
2.9968523789
 20
4.4610549468
 10
2.5732152906
 20
4.5249846137
 10
2.1444693216
 20
4.5791311742
 10
1.7114657072
 20
4.6233871253
 10
1.2750641361
 20
4.6576646008
 10
0.8361310431
 20
4.6818955461
 10
0.3955378894
 20
4.6960318527
 10
-0.0458405682
 20
4.7000454545
 10
-0.4871280136
 20
4.6939283826
 10
-0.9274483114
 20
4.6776927822
 10
-1.3659272464
 20
4.6513708873
 10
-1.8016942594
 20
4.6150149577
 10
-2.2338841751
 20
4.5686971748
 10
-2.6616389206
 20
4.5125094981
 10
-3.0841092284
 20
4.4465634832
 10
-3.5004563228
 20
4.3709900598
 10
-3.9098535852
 20
4.2859392718
 10
-4.3114881952
 20
4.1915799797
 10
-4.7045627445
 20
4.0880995253
 10
-5.0882968199
 20
3.9757033593
 10
-5.461928553
 20
3.8546146339
 10
-5.8247161325
 20
3.7250737596
 10
-6.1759392773
 20
3.5873379278
 10
-6.5149006664
 20
3.4416806003
 10
-6.8409273232
 20
3.2883909661
 10
-7.153371952
 20
3.1277733677
 10
-7.451614223
 20
2.9601466965
 10
-7.7350620037
 20
2.7858437596
 10
-8.0031525348
 20
2.6052106195
 10
-8.2553535473
 20
2.4186059065
 10
-8.4911643195
 20
2.2264001069
 10
-8.710116671
 20
2.0289748277
 10
-8.911775892
 20
1.8267220384
 10
-9.0957416069
 20
1.6200432933
 10
-9.2616485688
 20
1.4093489338
 10
-9.4091673848
 20
1.195057274
 10
-9.5380051698
 20
0.9775937704
 10
-9.6479061285
 20
0.7573901764
 10
-9.7386520626
 20
0.534883686
 10
-9.8100628045
 20
0.3105160651
 10
-9.8619965748
 20
0.084732775
 10
-9.8943502637
 20
-0.1420179125
 10
-9.9070596361
 20
-0.3692858049
 10
-9.9000994586
 20
-0.596619683
 10
-9.87348355
 20
-0.8235681962
 10
-9.8272647537
 20
-1.0496807594
 10
-9.761534833
 20
-1.2745084469
 10
-9.6764242884
 20
-1.4976048843
 10
-9.572102099
 20
-1.7185271341
 10
-9.448775387
 20
-1.9368365758
 10
-9.3066890061
 20
-2.152099776
 10
-9.1461250556
 20
-2.3638893498
 10
-8.9674023205
 20
-2.5717848084
 10
-8.770875638
 20
-2.7753733946
 10
-8.5569351939
 20
-2.9742509023
 10
-8.326005747
 20
-3.1680224784
 10
-8.0785457864
 20
-3.3563034075
 10
-7.8150466209
 20
-3.5387198753
 10
-7.5360314038
 20
-3.7149097106
 10
-7.2420540939
 20
-3.8845231049
 10
-6.9336983559
 20
-4.0472233066
 10
-6.6115764016
 20
-4.2026872893
 10
-6.2763277744
 20
-4.3506063938
 10
-5.9286180794
 20
-4.4906869404
 10
-5.569137662
 20
-4.6226508121
 10
-5.1986002372
 20
-4.7462360068
 10
-4.8177414728
 20
-4.8611971577
 10
-4.4273175288
 20
-4.9673060199
 10
-4.0281035555
 20
-5.0643519242
 10
-3.6208921556
 20
-5.1521421949
 10
-3.2064918094
 20
-5.2305025325
 10
-2.7857252705
 20
-5.2992773598
 10
-2.359427932
 20
-5.3583301308
 10
-1.9284461677
 20
-5.4075436017
 10
-1.4936356521
 20
-5.4468200637
 10
-1.0558596611
 20
-5.476081537
 10
-0.6159873585
 20
-5.4952699256
 10
-0.17489207
 20
-5.5043471328
 10
0.2665504505
 20
-5.5032951367
 10
0.7074637598
 20
-5.4921160258
 10
1.1469724652
 20
-5.4708319953
 10
1.584203963
 20
-5.4394853026
 10
2.0182901704
 20
-5.3981381837
 10
2.4483692496
 20
-5.3468727295
 10
2.8735873182
 20
-5.2857907228
 10
3.2931001452
 20
-5.2150134362
 10
3.7060748267
 20
-5.1346813915
 10
4.1116914397
 20
-5.0449540806
 10
4.5091446699
 20
-4.9460096486
 10
4.8976454107
 20
-4.8380445407
 10
5.27642233
 20
-4.7212731116
 10
5.6447234011
 20
-4.5959272
 10
6.0018173964
 20
-4.4622556688
 10
6.3469953388
 20
-4.3205239104
 10
6.6795719095
 20
-4.17101332
 10
6.9988868084
 20
-4.0140207371
 10
7.3043060655
 20
-3.849857856
 10
7.5952232989
 20
-3.6788506068
 10
7.8710609196
 20
-3.5013385086
 10
8.1312712773
 20
-3.3176739952
 10
8.3753377486
 20
-3.1282217156
 10
8.6027757621
 20
-2.9333578097
 10
8.8131337606
 20
-2.7334691618
 10
9.0059940978
 20
-2.5289526322
 10
9.1809738674
 20
-2.3202142695
 10
9.3377256632
 20
-2.1076685046
 10
9.475938269
 20
-1.8917373274
 10
9.5953372765
 20
-1.6728494491
 10
9.69568563
 20
-1.4514394514
 10
9.7767840972
 20
-1.2279469235
 10
9.8384716646
 20
-1.0028155889
 10
9.8806258571
 20
-0.7764924252
 10
9.9031629816
 20
-0.5494267759
 10
9.9060382927
 20
-0.3220694591
 10
9.8892460817
 20
-0.0948718715
 10
9.852819688
 20
0.1317149071
 10
9.7968314329
 20
0.3572410096
 10
9.7213924757
 20
0.5812586747
 10
9.6266525937
 20
0.8033231362
 10
9.512799884
 20
1.0229935056
 10
9.3800603907
 20
1.2398336477
 10
9.2286976558
 20
1.4534130466
 10
9.0590121959
 20
1.66330766
 10
8.8713409058
 20
1.8691007616
 10
8.6660563895
 20
2.0703837684
 10
8.4435662205
 20
2.2667570515
 10
8.2043121322
 20
2.4578307299
 10
7.9487691417
 20
2.6432254445
 10
7.6774446058
 20
2.8225731114
 10
7.3908772143
 20
2.9955176522
 10
7.0896359202
 20
3.1617157016
 10
6.7743188103
 20
3.3208372889
 10
6.4455519174
 20
3.4725664927
 10
6.1039879778
 20
3.6166020689
 10
5.7503051351
 20
3.752658048
 10
5.3852055939
 20
3.8804643036
 10
5.0094142254
 20
3.9997670882
 10
4.6236771286
 20
4.110329537
  0
LWPOLYLINE
  5
390
330
366
100
AcDbEntity
  8
0
  6
Continuous
 62
     7
370
    15
100
AcDbPolyline
 90
       48
 70
   128
 43
0.0
 10
-4.6669538893
 20
-7.1215073804
 10
-4.2711782643
 20
-7.2233708586
 10
-3.8670416073
 20
-7.3161181316
 10
-3.4553350348
 20
-7.3995676422
 10
-3.0368644817
 20
-7.4735560341
 10
-2.6124491237
 20
-7.5379384714
 10
-2.1829197739
 20
-7.5925889227
 10
-1.7491172562
 20
-7.6374004069
 10
-1.3118907592
 20
-7.6722852037
 10
-0.8720961745
 20
-7.6971750242
 10
-0.4305944206
 20
-7.7120211457
 10
0.0117502421
 20
-7.7167945059
 10
0.4540719032
 20
-7.711485761
 10
0.8955046972
 20
-7.6961053029
 10
1.3351844987
 20
-7.6706832397
 10
1.7722506138
 20
-7.6352693363
 10
2.2058474652
 20
-7.589932917
 10
2.6351262665
 20
-7.53476273
 10
3.0592466844
 20
-7.4698667735
 10
3.4773784833
 20
-7.3953720844
 10
3.8887031505
 20
-7.3114244896
 10
4.2924154987
 20
-7.2181883205
 10
4.6877252419
 20
-7.1158460911
 10
5.0738585429
 20
-7.0045981413
 10
5.4500595275
 20
-6.884662244
 10
5.8155917646
 20
-6.7562731795
 10
6.1697397078
 20
-6.6196822755
 10
6.5118100957
 20
-6.4751569149
 10
6.8411333096
 20
-6.3229800129
 10
7.1570646838
 20
-6.1634494631
 10
7.4589857677
 20
-5.996877554
 10
7.7463055368
 20
-5.8235903578
 10
8.018461549
 20
-5.6439270924
 10
8.2749210461
 20
-5.4582394571
 10
8.5151819968
 20
-5.2668909442
 10
8.7387740788
 20
-5.0702561273
 10
8.9452596001
 20
-4.8687199283
 10
9.1342343557
 20
-4.6626768639
 10
9.3053284187
 20
-4.4525302729
 10
9.4582068642
 20
-4.2386915273
 10
9.5925704257
 20
-4.0215792263
 10
9.7081560801
 20
-3.8016183776
 10
9.8047375631
 20
-3.5792395648
 10
9.8821258118
 20
-3.3548781048
 10
9.9401693353
 20
-3.1289731959
 10
9.9787545104
 20
-2.9019670573
 10
9.997805805
 20
-2.6743040644
 10
10.0
 20
-2.5664173123
  0
LWPOLYLINE
  5
391
330
366
100
AcDbEntity
  8
0
  6
Continuous
 62
     7
370
    15
100
AcDbPolyline
 90
       26
 70
   128
 43
0.0
 10
-10.0
 20
-2.5664173123
 10
-9.9972859252
 20
-2.6864047465
 10
-9.9771958888
 20
-2.9140440518
 10
-9.9375750229
 20
-3.1410028614
 10
-9.8785008872
 20
-3.3668368928
 10
-9.8000891221
 20
-3.5911040653
 10
-9.7024932224
 20
-3.8133653653
 10
-9.5859042365
 20
-4.033185706
 10
-9.450550393
 20
-4.2501347787
 10
-9.2966966532
 20
-4.4637878953
 10
-9.1246441932
 20
-4.6737268199
 10
-8.9347298137
 20
-4.8795405873
 10
-8.727325281
 20
-5.0808263071
 10
-8.5028365992
 20
-5.2771899533
 10
-8.2617032155
 20
-5.4682471348
 10
-8.0043971598
 20
-5.6536238481
 10
-7.7314221207
 20
-5.8329572096
 10
-7.4433124598
 20
-6.0058961659
 10
-7.1406321652
 20
-6.1721021809
 10
-6.8239737478
 20
-6.3312498983
 10
-6.4939570814
 20
-6.4830277792
 10
-6.151228189
 20
-6.6271387112
 10
-5.7964579785
 20
-6.7633005903
 10
-5.4303409294
 20
-6.8912468733
 10
-5.0535937329
 20
-7.0107270994
 10
-4.6669538893
 20
-7.1215073804
  0
LWPOLYLINE
  5
392
330
366
100
AcDbEntity
  8
0
  6
Continuous
 62
     8
370
    15
100
AcDbPolyline
 90
       67
 70
   128
 43
0.0
 10
9.9346248057
 20
-1.0759738317
 10
9.8821258118
 20
-1.2764718024
 10
9.8047375631
 20
-1.5008332624
 10
9.7081560801
 20
-1.7232120752
 10
9.5925704257
 20
-1.9431729239
 10
9.4582068642
 20
-2.1602852249
 10
9.3053284187
 20
-2.3741239705
 10
9.1342343557
 20
-2.5842705615
 10
8.9452596001
 20
-2.7903136259
 10
8.7387740788
 20
-2.9918498249
 10
8.5151819968
 20
-3.1884846418
 10
8.2749210461
 20
-3.3798331547
 10
8.018461549
 20
-3.56552079
 10
7.7463055368
 20
-3.7451840554
 10
7.4589857677
 20
-3.9184712516
 10
7.1570646838
 20
-4.0850431607
 10
6.8411333096
 20
-4.2445737106
 10
6.5118100957
 20
-4.3967506125
 10
6.1697397078
 20
-4.5412759731
 10
5.8155917646
 20
-4.6778668772
 10
5.4500595275
 20
-4.8062559416
 10
5.0738585429
 20
-4.9261918389
 10
4.6877252419
 20
-5.0374397887
 10
4.2924154987
 20
-5.1397820181
 10
3.8887031505
 20
-5.2330181872
 10
3.4773784833
 20
-5.316965782
 10
3.0592466844
 20
-5.3914604711
 10
2.6351262665
 20
-5.4563564276
 10
2.2058474652
 20
-5.5115266146
 10
1.7722506138
 20
-5.5568630339
 10
1.3351844987
 20
-5.5922769373
 10
0.8955046972
 20
-5.6176990005
 10
0.4540719032
 20
-5.6330794586
 10
0.0117502421
 20
-5.6383882035
 10
-0.4305944206
 20
-5.6336148433
 10
-0.8720961745
 20
-5.6187687219
 10
-1.3118907592
 20
-5.5938789013
 10
-1.7491172562
 20
-5.5589941046
 10
-2.1829197739
 20
-5.5141826203
 10
-2.6124491237
 20
-5.459532169
 10
-3.0368644817
 20
-5.3951497317
 10
-3.4553350348
 20
-5.3211613398
 10
-3.8670416073
 20
-5.2377118292
 10
-4.2711782643
 20
-5.1449645562
 10
-4.6669538893
 20
-5.043101078
 10
-5.0535937329
 20
-4.932320797
 10
-5.4303409294
 20
-4.812840571
 10
-5.7964579785
 20
-4.6848942879
 10
-6.151228189
 20
-4.5487324088
 10
-6.4939570814
 20
-4.4046214768
 10
-6.8239737478
 20
-4.2528435959
 10
-7.1406321652
 20
-4.0936958785
 10
-7.4433124598
 20
-3.9274898635
 10
-7.7314221207
 20
-3.7545509073
 10
-8.0043971598
 20
-3.5752175457
 10
-8.2617032155
 20
-3.3898408324
 10
-8.5028365992
 20
-3.1987836509
 10
-8.727325281
 20
-3.0024200048
 10
-8.9347298137
 20
-2.8011342849
 10
-9.1246441932
 20
-2.5953205176
 10
-9.2966966532
 20
-2.3853815929
 10
-9.450550393
 20
-2.1717284763
 10
-9.5859042365
 20
-1.9547794036
 10
-9.7024932224
 20
-1.7349590629
 10
-9.8000891221
 20
-1.5126977629
 10
-9.8785008872
 20
-1.2884305904
 10
-9.9341974001
 20
-1.077886349
  0
LINE
  5
393
330
366
100
AcDbEntity
  8
0
  6
Continuous
 62
     7
370
    15
100
AcDbLine
 10
-10.0
 20
-0.4880110099
 30
0.0
 11
-10.0
 21
-2.5664173123
 31
0.0
  0
LINE
  5
394
330
366
100
AcDbEntity
  8
0
  6
Continuous
 62
     7
370
    15
100
AcDbLine
 10
10.0
 20
-2.5664173123
 30
0.0
 11
10.0
 21
-0.4880110099
 31
0.0
  0
ARC
  5
395
330
366
100
AcDbEntity
  8
0
  6
Continuous
 62
     7
370
    15
100
AcDbCircle
 10
7.3122578061
 20
-0.487955786
 30
0.0
 40
2.68748467953199
100
AcDbArc
 50
347.3615177011
 51
13.0720461266
  0
ARC
  5
396
330
366
100
AcDbEntity
  8
0
  6
Continuous
 62
     7
370
    15
100
AcDbCircle
 10
-7.3123422637
 20
-0.4879863623
 30
0.0
 40
2.687397691178319
100
AcDbArc
 50
167.1196057803
 51
192.6800211723
  0
VIEWPORT
  5
3F1
330
366
100
AcDbEntity
  8
0
100
AcDbViewport
 10
0.0
 20
0.0
 30
0.0
 40
243.84
 41
204.216
 68
     1
 69
     1
 12
0.3073651616
 22
-6.9066422729
 13
0.0
 23
0.0
 14
10.0
 24
10.0
 15
10.0
 25
10.0
 16
0.0
 26
0.0
 36
1.0
 17
0.0
 27
0.0
 37
0.0
 42
50.0
 43
0.0
 44
0.0
 45
28.0300657814
 50
0.0
 51
0.0
 72
   100
 90
   557152
  1

281
     0
 71
     1
 74
     0
110
0.0
120
0.0
130
0.0
111
1.0
121
0.0
131
0.0
112
0.0
122
1.0
132
0.0
 79
     0
146
0.0
  0
ENDBLK
  5
369
330
366
100
AcDbEntity
  8
0
100
AcDbBlockEnd
  0
BLOCK
  5
399
330
397
100
AcDbEntity
  8
0
100
AcDbBlockBegin
  2
*Paper_Space7
 70
     0
 10
0.0
 20
0.0
 30
0.0
  3
*Paper_Space7
  1

  0
LWPOLYLINE
  5
39B
330
397
100
AcDbEntity
  8
0
  6
Continuous
 62
     7
100
AcDbPolyline
 90
        9
 70
   128
 43
0.0
 10
0.0
 20
0.0
 10
1.1703493375
 20
-0.1771464617
 10
2.3404858034
 20
-0.3618256937
 10
3.5103613319
 20
-0.5540301098
 10
4.6799278678
 20
-0.7537518148
 10
5.8491373686
 20
-0.9609826048
 10
7.0179418064
 20
-1.1757139672
 10
8.1862931702
 20
-1.3979370816
 10
9.3541434672
 20
-1.6276428196
  0
LINE
  5
39C
330
397
100
AcDbEntity
  8
0
  6
CENTERX2
 62
     7
100
AcDbLine
 10
0.0
 20
0.0
 30
0.0
 11
0.0
 21
-28.0542789759
 31
0.0
  0
LINE
  5
39D
330
397
100
AcDbEntity
  8
0
  6
Continuous
 62
     7
100
AcDbLine
 10
0.0
 20
0.0
 30
0.0
 11
0.0
 21
-2.8228345209
 31
0.0
  0
LINE
  5
39E
330
397
100
AcDbEntity
  8
0
  6
Continuous
 62
     7
100
AcDbLine
 10
0.0
 20
-2.8228345209
 30
0.0
 11
9.3541434672
 21
-4.0013458223
 31
0.0
  0
LINE
  5
39F
330
397
100
AcDbEntity
  8
0
  6
Continuous
 62
     7
100
AcDbLine
 10
9.3541434672
 20
-4.0013458223
 30
0.0
 11
9.3541434672
 21
-1.6276428196
 31
0.0
  0
LINE
  5
3A0
330
397
100
AcDbEntity
  8
0
  6
CENTERX2
 62
     7
100
AcDbLine
 10
-4.094117401
 20
0.5158103084
 30
0.0
 11
-3.653346147
 21
0.9045340161
 31
0.0
  0
LINE
  5
3A1
330
397
100
AcDbEntity
  8
0
  6
CENTERX2
 62
     7
100
AcDbLine
 10
-3.653346147
 20
0.9045340161
 30
0.0
 11
-2.9934224631
 21
0.821391447
 31
0.0
  0
LINE
  5
3A2
330
397
100
AcDbEntity
  8
0
  6
CENTERX2
 62
     7
100
AcDbLine
 10
-2.9934224631
 20
0.821391447
 30
0.0
 11
-3.318762951
 21
0.5344681062
 31
0.0
  0
LINE
  5
3A3
330
397
100
AcDbEntity
  8
0
  6
CENTERX2
 62
     7
100
AcDbLine
 10
-3.318762951
 20
0.5344681062
 30
0.0
 11
-0.2486832042
 21
0.1476744152
 31
0.0
  0
LINE
  5
3A4
330
397
100
AcDbEntity
  8
0
  6
Continuous
 62
     7
100
AcDbLine
 10
-0.2486832042
 20
0.1476744152
 30
0.0
 11
0.0766572836
 21
0.434597756
 31
0.0
  0
LINE
  5
3A5
330
397
100
AcDbEntity
  8
0
  6
Continuous
 62
     7
100
AcDbLine
 10
0.0766572836
 20
0.434597756
 30
0.0
 11
0.7365809675
 21
0.3514551869
 31
0.0
  0
LINE
  5
3A6
330
397
100
AcDbEntity
  8
0
  6
Continuous
 62
     7
100
AcDbLine
 10
0.7365809675
 20
0.3514551869
 30
0.0
 11
0.4112404797
 21
0.0645318461
 31
0.0
  0
LINE
  5
3A7
330
397
100
AcDbEntity
  8
0
  6
Continuous
 62
     7
100
AcDbLine
 10
0.4112404797
 20
0.0645318461
 30
0.0
 11
3.8543205696
 21
-0.3692554709
 31
0.0
  0
LINE
  5
3A8
330
397
100
AcDbEntity
  8
0
  6
Continuous
 62
     7
100
AcDbLine
 10
3.8543205696
 20
-0.3692554709
 30
0.0
 11
4.1796610574
 21
-0.0823321301
 31
0.0
  0
LINE
  5
3A9
330
397
100
AcDbEntity
  8
0
  6
Continuous
 62
     7
100
AcDbLine
 10
4.1796610574
 20
-0.0823321301
 30
0.0
 11
4.8682770754
 21
-0.1690895935
 31
0.0
  0
LINE
  5
3AA
330
397
100
AcDbEntity
  8
0
  6
Continuous
 62
     7
100
AcDbLine
 10
4.8682770754
 20
-0.1690895935
 30
0.0
 11
3.9867345674
 21
-0.9465370089
 31
0.0
  0
LINE
  5
3AB
330
397
100
AcDbEntity
  8
0
  6
Continuous
 62
     7
100
AcDbLine
 10
-2.9934224631
 20
0.821391447
 30
0.0
 11
-3.318762951
 21
0.5344681062
 31
0.0
  0
LINE
  5
3AC
330
397
100
AcDbEntity
  8
0
  6
Continuous
 62
     7
100
AcDbLine
 10
-3.318762951
 20
0.5344681062
 30
0.0
 11
-0.2486832042
 21
0.1476744152
 31
0.0
  0
LINE
  5
3AD
330
397
100
AcDbEntity
  8
0
  6
Continuous
 62
     7
100
AcDbLine
 10
-2.9934224631
 20
0.821391447
 30
0.0
 11
-3.653346147
 21
0.9045340161
 31
0.0
  0
LINE
  5
3AE
330
397
100
AcDbEntity
  8
0
  6
Continuous
 62
     7
100
AcDbLine
 10
-3.653346147
 20
0.9045340161
 30
0.0
 11
-4.534888655
 21
0.1270866007
 31
0.0
  0
LINE
  5
3AF
330
397
100
AcDbEntity
  8
0
  6
CENTERX2
 62
     7
100
AcDbLine
 10
-4.4596055486
 20
0.5618574867
 30
0.0
 11
4.931391117
 21
-0.6212968813
 31
0.0
  0
LINE
  5
3B0
330
397
100
AcDbEntity
  8
0
  6
Continuous
 62
     7
100
AcDbLine
 10
3.2981185494
 20
-0.8597795455
 30
0.0
 11
3.9867345674
 21
-0.9465370089
 31
0.0
  0
LINE
  5
3B1
330
397
100
AcDbEntity
  8
0
  6
Continuous
 62
     7
100
AcDbLine
 10
3.6234590373
 20
-0.5728562048
 30
0.0
 11
3.2981185494
 21
-0.8597795455
 31
0.0
  0
LINE
  5
3B2
330
397
100
AcDbEntity
  8
0
  6
Continuous
 62
     7
100
AcDbLine
 10
0.1803789474
 20
-0.1390688878
 30
0.0
 11
3.6234590373
 21
-0.5728562048
 31
0.0
  0
LINE
  5
3B3
330
397
100
AcDbEntity
  8
0
  6
Continuous
 62
     7
100
AcDbLine
 10
-0.1449615404
 20
-0.4259922285
 30
0.0
 11
0.1803789474
 21
-0.1390688878
 31
0.0
  0
LINE
  5
3B4
330
397
100
AcDbEntity
  8
0
  6
Continuous
 62
     7
100
AcDbLine
 10
-0.8048852243
 20
-0.3428496594
 30
0.0
 11
-0.1449615404
 21
-0.4259922285
 31
0.0
  0
LINE
  5
3B5
330
397
100
AcDbEntity
  8
0
  6
Continuous
 62
     7
100
AcDbLine
 10
-0.4795447365
 20
-0.0559263187
 30
0.0
 11
-0.8048852243
 21
-0.3428496594
 31
0.0
  0
LINE
  5
3B6
330
397
100
AcDbEntity
  8
0
  6
Continuous
 62
     7
100
AcDbLine
 10
-3.5496244833
 20
0.3308673723
 30
0.0
 11
-0.4795447365
 21
-0.0559263187
 31
0.0
  0
LINE
  5
3B7
330
397
100
AcDbEntity
  8
0
  6
Continuous
 62
     7
100
AcDbLine
 10
-3.8749649711
 20
0.0439440316
 30
0.0
 11
-3.5496244833
 21
0.3308673723
 31
0.0
  0
LINE
  5
3B8
330
397
100
AcDbEntity
  8
0
  6
Continuous
 62
     7
100
AcDbLine
 10
-3.8749649711
 20
0.0439440316
 30
0.0
 11
-4.534888655
 21
0.1270866007
 31
0.0
  0
POINT
  5
3B9
330
397
100
AcDbEntity
  8
0
  6
Continuous
 62
     7
100
AcDbPoint
 10
4.4275058214
 20
-0.5578133012
 30
0.0
  0
SPLINE
  5
3BA
330
397
100
AcDbEntity
  8
0
  6
Continuous
 62
     7
370
    15
100
AcDbSpline
210
0.0
220
0.0
230
1.0
 70
     8
 71
     3
 72
    35
 73
    31
 74
     0
 42
0.00000001
 43
0.00000001
 12
1.0
 22
0.0
 32
0.0
 13
1.0
 23
0.0
 33
0.0
 40
0.0
 40
0.0
 40
0.0
 40
0.0
 40
0.0311828880088278
 40
0.0669502750895126
 40
0.102985814936469
 40
0.1393160612114969
 40
0.1759181808777848
 40
0.212738320208655
 40
0.2497123604758662
 40
0.2867813006466122
 40
0.3238987311569044
 40
0.3610317996415924
 40
0.3981551092729779
 40
0.4352588188564871
 40
0.4723382148070615
 40
0.5093917809674396
 40
0.546419881515069
 40
0.5834239089702887
 40
0.6204057548643398
 40
0.6573674928278778
 40
0.6943111967811081
 40
0.7312388428461157
 40
0.7681522619406135
 40
0.8050531222665486
 40
0.8419429288329185
 40
0.8788230321768314
 40
0.9156946415893608
 40
0.9525588400981779
 40
0.9894165996523414
 40
1.0
 40
1.0
 40
1.0
 40
1.0
 10
9.972517368618103
 20
-0.2846709211468531
 30
0.0
 10
9.96272293718403
 20
-0.2425884864729045
 30
0.0
 10
9.941694099872016
 20
-0.152236669891333
 30
0.0
 10
9.88828515281003
 20
-0.0150486706137329
 30
0.0
 10
9.816876384751016
 20
0.1271429099637669
 30
0.0
 10
9.727580708776253
 20
0.2681649443586865
 30
0.0
 10
9.621006051656881
 20
0.4077903566540252
 30
0.0
 10
9.497139053291372
 20
0.5456809868105948
 30
0.0
 10
9.35627580210185
 20
0.681496076363042
 30
0.0
 10
9.19874117774542
 20
0.8149123488820189
 30
0.0
 10
9.02492303265161
 20
0.9456462811815065
 30
0.0
 10
8.835235172085474
 20
1.073449376610649
 30
0.0
 10
8.630099416500087
 20
1.198109253826666
 30
0.0
 10
8.409939305946036
 20
1.31943882958264
 30
0.0
 10
8.175171790382162
 20
1.437271373557627
 30
0.0
 10
7.926224257073237
 20
1.551446541594633
 30
0.0
 10
7.663538110298303
 20
1.661807632718638
 30
0.0
 10
7.387571516150008
 20
1.76820040315533
 30
0.0
 10
7.098801270785557
 20
1.870472851418732
 30
0.0
 10
6.797723881920865
 20
1.968475548552413
 30
0.0
 10
6.484856040873158
 20
2.062062257590584
 30
0.0
 10
6.160734573693492
 20
2.151090617444618
 30
0.0
 10
5.825916223675706
 20
2.235423023756183
 30
0.0
 10
5.480976507982692
 20
2.314926815378929
 30
0.0
 10
5.126510895152231
 20
2.389476883731857
 30
0.0
 10
4.763126501575088
 20
2.458948980263258
 30
0.0
 10
4.391468556672208
 20
2.523247427410664
 30
0.0
 10
4.012116711696321
 20
2.582204179385154
 30
0.0
 10
3.717703229226547
 20
2.623187535318635
 30
0.0
 10
3.550074077241983
 20
2.64454833183138
 30
0.0
 10
3.512678566064294
 20
2.649313600254562
 30
0.0
  0
SPLINE
  5
3BB
330
397
100
AcDbEntity
  8
0
  6
Continuous
 62
     7
370
    15
100
AcDbSpline
210
0.0
220
0.0
230
1.0
 70
     8
 71
     3
 72
    52
 73
    48
 74
     0
 42
0.00000001
 43
0.00000001
 12
1.0
 22
0.0
 32
0.0
 13
1.0
 23
0.0
 33
0.0
 40
0.0
 40
0.0
 40
0.0
 40
0.0
 40
0.0118714965124844
 40
0.0344337271929833
 40
0.0569947936638034
 40
0.0795537131246684
 40
0.1021108659803777
 40
0.124666607297595
 40
0.147221271795213
 40
0.1697751786431552
 40
0.1923286359351146
 40
0.2148819449248879
 40
0.2374353608276479
 40
0.2599891267822785
 40
0.2825435459358203
 40
0.3050989295203202
 40
0.3276556011226583
 40
0.3502139012164561
 40
0.3727741920394428
 40
0.3953368629105304
 40
0.4179023360817932
 40
0.4404710732175167
 40
0.4630435825815215
 40
0.4856204269885259
 40
0.5082022325250712
 40
0.5307896979533774
 40
0.5533836045502905
 40
0.5759848258590132
 40
0.598594336373212
 40
0.621213217418714
 40
0.6438426572684413
 40
0.6664839405414776
 40
0.6891384187652241
 40
0.7118074489776092
 40
0.7344922795092077
 40
0.7571938504847681
 40
0.7799124600921014
 40
0.8026472264715765
 40
0.8253952535424123
 40
0.8481503727353509
 40
0.8708964602729982
 40
0.8936128440131265
 40
0.9162698595821696
 40
0.9388295194003865
 40
0.9612504084491272
 40
0.9834981348757903
 40
1.0
 40
1.0
 40
1.0
 40
1.0
 10
3.512678566064294
 20
2.649313600254562
 30
0.0
 10
3.443905841678066
 20
2.657803557307001
 30
0.0
 10
3.244427938673736
 20
2.682429000671825
 30
0.0
 10
2.909738482861107
 20
2.718969277389241
 30
0.0
 10
2.507498411237491
 20
2.757027392866028
 30
0.0
 10
2.100792865360235
 20
2.789332963357818
 30
0.0
 10
1.690448789754313
 20
2.815925004225822
 30
0.0
 10
1.277151866435372
 20
2.836733744987193
 30
0.0
 10
0.8616306967496371
 20
2.851730974918639
 30
0.0
 10
0.4446079887715521
 20
2.860889693248243
 30
0.0
 10
0.0268119377983414
 20
2.864195022537869
 30
0.0
 10
-0.3910282593973398
 20
2.861641352709767
 30
0.0
 10
-0.8081827581647473
 20
2.853233159725789
 30
0.0
 10
-1.22392300672486
 20
2.838984802953817
 30
0.0
 10
-1.637523293724673
 20
2.81892052613276
 30
0.0
 10
-2.04826217820082
 20
2.793074351220278
 30
0.0
 10
-2.455423475457814
 20
2.76148999651195
 30
0.0
 10
-2.858297586594595
 20
2.724220752916527
 30
0.0
 10
-3.256182816737204
 20
2.681329330378309
 30
0.0
 10
-3.6483866816954
 20
2.632887670827292
 30
0.0
 10
-4.034227200064766
 20
2.5789767256547
 30
0.0
 10
-4.413034168119143
 20
2.519686194437602
 30
0.0
 10
-4.784150414113888
 20
2.455114220967414
 30
0.0
 10
-5.146933027844423
 20
2.385367041608711
 30
0.0
 10
-5.500754560050084
 20
2.310558579866217
 30
0.0
 10
-5.84500418440413
 20
2.230809979709994
 30
0.0
 10
-6.179088812078583
 20
2.146249068771188
 30
0.0
 10
-6.502434144812757
 20
2.057009741106705
 30
0.0
 10
-6.814485646451851
 20
1.963231248140904
 30
0.0
 10
-7.114709404241191
 20
1.865057386219017
 30
0.0
 10
-7.402592838596626
 20
1.762635571063635
 30
0.0
 10
-7.677645202323258
 20
1.656115795349139
 30
0.0
 10
-7.939397785087083
 20
1.545649479139258
 30
0.0
 10
-8.18740370699915
 20
1.431388250335489
 30
0.0
 10
-8.421237138547946
 20
1.313482743161098
 30
0.0
 10
-8.64049175659109
 20
1.192081594786395
 30
0.0
 10
-8.844778142863944
 20
1.067330968818
 30
0.0
 10
-9.033720101442743
 20
0.9393751925875896
 30
0.0
 10
-9.206948987176121
 20
0.8083594350751017
 30
0.0
 10
-9.364087797678824
 20
0.6744457144032154
 30
0.0
 10
-9.504750432058739
 20
0.537819831638799
 30
0.0
 10
-9.628566850281906
 20
0.3987112415194884
 30
0.0
 10
-9.735109716081302
 20
0.257398270235327
 30
0.0
 10
-9.824248068558614
 20
0.1142537520146428
 30
0.0
 10
-9.89494124532002
 20
-0.0303353279200169
 30
0.0
 10
-9.945307641519001
 20
-0.1635736036667199
 30
0.0
 10
-9.96398455597584
 20
-0.2490544714384955
 30
0.0
 10
-9.971938289446776
 20
-0.2854572745188413
 30
0.0
  0
LWPOLYLINE
  5
3BE
330
397
100
AcDbEntity
  8
0
  6
Continuous
 62
     7
370
    15
100
AcDbPolyline
 90
      142
 70
   128
 43
0.0
 10
3.5027488255
 20
2.6463961193
 10
3.0864380401
 20
2.6953416683
 10
2.6639994176
 20
2.7380568506
 10
2.2362716709
 20
2.7744568591
 10
1.8041040137
 20
2.8044694252
 10
1.3683544751
 20
2.8280349615
 10
0.9298881953
 20
2.8451066809
 10
0.4895757085
 20
2.855650689
 10
0.0482912145
 20
2.8596460518
 10
-0.3930891572
 20
2.8570848367
 10
-0.8336890868
 20
2.8479721289
 10
-1.2726338039
 20
2.8323260208
 10
-1.7090518244
 20
2.8101775762
 10
-2.1420766807
 20
2.7815707689
 10
-2.570848642
 20
2.7465623951
 10
-2.9945164212
 20
2.7052219606
 10
-3.4122388654
 20
2.657631543
 10
-3.8231866251
 20
2.6038856287
 10
-4.2265438016
 20
2.5440909252
 10
-4.6215095667
 20
2.4783661494
 10
-5.0072997523
 20
2.4068417918
 10
-5.3831484077
 20
2.3296598573
 10
-5.7483093203
 20
2.2469735835
 10
-6.1020574968
 20
2.1589471364
 10
-6.443690603
 20
2.0657552843
 10
-6.7725303579
 20
1.967583051
 10
-7.0879238807
 20
1.8646253484
 10
-7.3892449868
 20
1.7570865895
 10
-7.6758954309
 20
1.6451802826
 10
-7.9473060951
 20
1.5291286072
 10
-8.2029381187
 20
1.4091619732
 10
-8.442283968
 20
1.2855185633
 10
-8.6648684439
 20
1.15844386
 10
-8.8702496256
 20
1.0281901584
 10
-9.0580197477
 20
0.8950160651
 10
-9.2278060101
 20
0.759185985
 10
-9.3792713178
 20
0.6209695961
 10
-9.5121149505
 20
0.4806413143
 10
-9.6260731594
 20
0.3384797483
 10
-9.7209196911
 20
0.1947671469
 10
-9.7964662365
 20
0.049788838
 10
-9.8525628051
 20
-0.0961673372
 10
-9.8890980222
 20
-0.2428115964
 10
-9.9059993506
 20
-0.3898527909
 10
-9.9032332342
 20
-0.5369989841
 10
-9.8808051649
 20
-0.6839580308
 10
-9.8387596715
 20
-0.8304381573
 10
-9.7771802315
 20
-0.9761485411
 10
-9.6961891052
 20
-1.1207998876
 10
-9.595947093
 20
-1.2641050049
 10
-9.4766532161
 20
-1.405779374
 10
-9.3385443214
 20
-1.5455417136
 10
-9.1818946113
 20
-1.6831145384
 10
-9.0070150994
 20
-1.8182247104
 10
-8.8142529928
 20
-1.9506039809
 10
-8.6039910028
 20
-2.0799895229
 10
-8.376646585
 20
-2.2061244536
 10
-8.1326711108
 20
-2.3287583436
 10
-7.8725489709
 20
-2.4476477148
 10
-7.5967966138
 20
-2.5625565233
 10
-7.3059615202
 20
-2.6732566283
 10
-7.0006211162
 20
-2.779528245
 10
-6.681381627
 20
-2.8811603809
 10
-6.3488768731
 20
-2.9779512549
 10
-6.0037670118
 20
-3.0697086975
 10
-5.6467372269
 20
-3.156250533
 10
-5.2784963678
 20
-3.2374049405
 10
-4.8997755429
 20
-3.3130107954
 10
-4.5113266671
 20
-3.3829179893
 10
-4.1139209698
 20
-3.446987728
 10
-3.7083474633
 20
-3.5050928068
 10
-3.2954113761
 20
-3.5571178637
 10
-2.8759325547
 20
-3.6029596075
 10
-2.4507438353
 20
-3.6425270239
 10
-2.020689391
 20
-3.6757415552
 10
-1.5866230549
 20
-3.7025372573
 10
-1.1494066256
 20
-3.7228609296
 10
-0.7099081559
 20
-3.7366722214
 10
-0.2690002292
 20
-3.7439437117
 10
0.1724417726
 20
-3.7446609636
 10
0.6135414071
 20
-3.738822553
 10
1.053422912
 20
-3.7264400716
 10
1.4912129432
 20
-3.7075381037
 10
1.9260423092
 20
-3.6821541773
 10
2.3570476964
 20
-3.65033869
 10
2.7833733836
 20
-3.6121548083
 10
3.2041729406
 20
-3.5676783429
 10
3.6186109088
 20
-3.5169975976
 10
4.02586446
 20
-3.4602131945
 10
4.42512503
 20
-3.3974378736
 10
4.8155999238
 20
-3.3287962696
 10
5.1965138898
 20
-3.2544246639
 10
5.5671106584
 20
-3.1744707147
 10
5.9266544441
 20
-3.0890931629
 10
6.274431406
 20
-2.998461518
 10
6.6097510652
 20
-2.9027557204
 10
6.9319476754
 20
-2.8021657854
 10
7.2403815452
 20
-2.6968914249
 10
7.5344403076
 20
-2.5871416513
 10
7.8135401363
 20
-2.4731343628
 10
8.0771269042
 20
-2.3550959102
 10
8.3246772843
 20
-2.2332606479
 10
8.5556997882
 20
-2.1078704686
 10
8.7697357422
 20
-1.9791743229
 10
8.9663601976
 20
-1.847427725
 10
9.1451827748
 20
-1.7128922457
 10
9.3058484382
 20
-1.5758349927
 10
9.4480382008
 20
-1.4365280804
 10
9.5714697582
 20
-1.2952480899
 10
9.6758980483
 20
-1.1522755194
 10
9.7611157385
 20
-1.0078942279
 10
9.8269536369
 20
-0.8623908709
 10
9.8732810285
 20
-0.716054332
 10
9.9000059345
 20
-0.5691751487
 10
9.9070752952
 20
-0.4220449362
 10
9.8944750748
 20
-0.2749558077
 10
9.8622302901
 20
-0.1281997953
 10
9.8104049601
 20
0.0179317307
 10
9.7391019791
 20
0.1631486396
 10
9.6484629126
 20
0.3071626168
 10
9.5386677161
 20
0.4496877357
 10
9.4099343778
 20
0.590441026
 10
9.2625184858
 20
0.7291430349
 10
9.0967127207
 20
0.8655183826
 10
8.9128462746
 20
0.9992963084
 10
8.7112841972
 20
1.1302112086
 10
8.4924266713
 20
1.2580031638
 10
8.2567082185
 20
1.3824184549
 10
8.0045968357
 20
1.5032100668
 10
7.7365930668
 20
1.620138179
 10
7.4532290086
 20
1.7329706415
 10
7.155067254
 20
1.8414834359
 10
6.8426997758
 20
1.9454611202
 10
6.5167467505
 20
2.0446972562
 10
6.1778553277
 20
2.1389948198
 10
5.8266983451
 20
2.2281665919
 10
5.4639729922
 20
2.3120355302
 10
5.0903994267
 20
2.3904351207
 10
4.7067193444
 20
2.4632097083
 10
4.3136945065
 20
2.5302148057
 10
3.9121052274
 20
2.5913173805
 10
3.5027488255
 20
2.6463961193
  0
LWPOLYLINE
  5
3C1
330
397
100
AcDbEntity
  8
0
  6
Continuous
 62
     7
370
    15
100
AcDbPolyline
 90
       45
 70
   128
 43
0.0
 10
-3.5355339051
 20
-5.9408823426
 10
-3.118308347
 20
-5.9899599791
 10
-2.6949785538
 20
-6.0328378188
 10
-2.2663732136
 20
-6.0694319263
 10
-1.8333313414
 20
-6.0996706669
 10
-1.396700637
 20
-6.1234948468
 10
-0.9573358255
 20
-6.1408578292
 10
-0.5160969841
 20
-6.1517256252
 10
-0.0738478587
 20
-6.1560769604
 10
0.3685458274
 20
-6.1539033171
 10
0.8102180677
 20
-6.1452089502
 10
1.2503042681
 20
-6.1300108793
 10
1.6879429392
 20
-6.1083388554
 10
2.1222773827
 20
-6.0802353025
 10
2.5524573685
 20
-6.0457552345
 10
2.9776407992
 20
-6.004966148
 10
3.3969953582
 20
-5.9579478893
 10
3.8097001393
 20
-5.904792499
 10
4.2149472535
 20
-5.8456040312
 10
4.6119434104
 20
-5.7804983502
 10
4.9999114716
 20
-5.7096029033
 10
5.3780919712
 20
-5.6330564717
 10
5.7457446033
 20
-5.5510088987
 10
6.1021496705
 20
-5.4636207963
 10
6.4466094932
 20
-5.3710632307
 10
6.778449775
 20
-5.2735173877
 10
7.0970209231
 20
-5.1711742179
 10
7.4016993194
 20
-5.0642340629
 10
7.6918885418
 20
-4.9529062631
 10
7.9670205311
 20
-4.8374087478
 10
8.2265567036
 20
-4.7179676088
 10
8.469989005
 20
-4.5948166578
 10
8.6968409052
 20
-4.4681969686
 10
8.9066683309
 20
-4.3383564051
 10
9.0990605351
 20
-4.2055491363
 10
9.2736409011
 20
-4.0700351388
 10
9.4300676794
 20
-3.9320796875
 10
9.5680346575
 20
-3.7919528367
 10
9.6872717584
 20
-3.6499288912
 10
9.7875455699
 20
-3.5062858697
 10
9.8686598013
 20
-3.3613049601
 10
9.9304556677
 20
-3.2152699693
 10
9.9728122009
 20
-3.0684667677
 10
9.9956464858
 20
-2.9211827295
 10
10.0
 20
-2.8228345209
  0
LWPOLYLINE
  5
3C2
330
397
100
AcDbEntity
  8
0
  6
Continuous
 62
     7
370
    15
100
AcDbPolyline
 90
       29
 70
   128
 43
0.0
 10
-10.0
 20
-2.8228345209
 10
-9.9989138233
 20
-2.8719628719
 10
-9.9826078175
 20
-3.0193432603
 10
-9.9467603881
 20
-3.1663389737
 10
-9.8914417081
 20
-3.3126622609
 10
-9.8167600665
 20
-3.4580266874
 10
-9.722861656
 20
-3.6021476954
 10
-9.6099302873
 20
-3.7447431612
 10
-9.4781870288
 20
-3.8855339476
 10
-9.327889774
 20
-4.0242444499
 10
-9.159332737
 20
-4.1606031359
 10
-8.972845876
 20
-4.294343077
 10
-8.7687942479
 20
-4.425202471
 10
-8.5475772932
 20
-4.5529251545
 10
-8.3096280546
 20
-4.6772611043
 10
-8.0554123289
 20
-4.797966927
 10
-7.7854277552
 20
-4.9148063353
 10
-7.5002028411
 20
-5.0275506105
 10
-7.2002959277
 20
-5.1359790504
 10
-6.886294097
 20
-5.2398794013
 10
-6.5588120221
 20
-5.3390482733
 10
-6.2184907647
 20
-5.4332915388
 10
-5.8659965196
 20
-5.522424712
 10
-5.5020193109
 20
-5.6062733107
 10
-5.127271641
 20
-5.6846731972
 10
-4.7424870961
 20
-5.7574709002
 10
-4.3484189099
 20
-5.8245239146
 10
-3.9458384896
 20
-5.885700981
 10
-3.5355339051
 20
-5.9408823426
  0
LWPOLYLINE
  5
3C3
330
397
100
AcDbEntity
  8
0
  6
Continuous
 62
     8
370
    15
100
AcDbPolyline
 90
       70
 70
   128
 43
0.0
 10
9.9779394726
 20
-0.758059544
 10
9.9728122009
 20
-0.7824016642
 10
9.9304556677
 20
-0.9292048658
 10
9.8686598013
 20
-1.0752398566
 10
9.7875455699
 20
-1.2202207662
 10
9.6872717584
 20
-1.3638637877
 10
9.5680346575
 20
-1.5058877331
 10
9.4300676794
 20
-1.6460145839
 10
9.2736409011
 20
-1.7839700353
 10
9.0990605351
 20
-1.9194840328
 10
8.9066683309
 20
-2.0522913015
 10
8.6968409052
 20
-2.182131865
 10
8.469989005
 20
-2.3087515543
 10
8.2265567036
 20
-2.4319025053
 10
7.9670205311
 20
-2.5513436442
 10
7.6918885418
 20
-2.6668411595
 10
7.4016993194
 20
-2.7781689594
 10
7.0970209231
 20
-2.8851091144
 10
6.778449775
 20
-2.9874522842
 10
6.4466094932
 20
-3.0849981271
 10
6.1021496705
 20
-3.1775556927
 10
5.7457446033
 20
-3.2649437952
 10
5.3780919712
 20
-3.3469913682
 10
4.9999114716
 20
-3.4235377997
 10
4.6119434104
 20
-3.4944332466
 10
4.2149472535
 20
-3.5595389277
 10
3.8097001393
 20
-3.6187273954
 10
3.3969953582
 20
-3.6718827858
 10
2.9776407992
 20
-3.7189010444
 10
2.5524573685
 20
-3.759690131
 10
2.1222773827
 20
-3.7941701989
 10
1.6879429392
 20
-3.8222737519
 10
1.2503042681
 20
-3.8439457758
 10
0.8102180677
 20
-3.8591438467
 10
0.3685458274
 20
-3.8678382136
 10
-0.0738478587
 20
-3.8700118569
 10
-0.5160969841
 20
-3.8656605216
 10
-0.9573358255
 20
-3.8547927257
 10
-1.396700637
 20
-3.8374297433
 10
-1.8333313414
 20
-3.8136055633
 10
-2.2663732136
 20
-3.7833668227
 10
-2.6949785538
 20
-3.7467727152
 10
-3.118308347
 20
-3.7038948755
 10
-3.5355339051
 20
-3.654817239
 10
-3.9458384896
 20
-3.5996358775
 10
-4.3484189099
 20
-3.538458811
 10
-4.7424870961
 20
-3.4714057966
 10
-5.127271641
 20
-3.3986080937
 10
-5.5020193109
 20
-3.3202082072
 10
-5.8659965196
 20
-3.2363596085
 10
-6.2184907647
 20
-3.1472264352
 10
-6.5588120221
 20
-3.0529831698
 10
-6.886294097
 20
-2.9538142978
 10
-7.2002959277
 20
-2.8499139469
 10
-7.5002028411
 20
-2.741485507
 10
-7.7854277552
 20
-2.6287412318
 10
-8.0554123289
 20
-2.5119018235
 10
-8.3096280546
 20
-2.3911960008
 10
-8.5475772932
 20
-2.2668600509
 10
-8.7687942479
 20
-2.1391373674
 10
-8.972845876
 20
-2.0082779734
 10
-9.159332737
 20
-1.8745380323
 10
-9.327889774
 20
-1.7381793464
 10
-9.4781870288
 20
-1.599468844
 10
-9.6099302873
 20
-1.4586780576
 10
-9.722861656
 20
-1.3160825918
 10
-9.8167600665
 20
-1.1719615839
 10
-9.8914417081
 20
-1.0265971574
 10
-9.9467603881
 20
-0.8802738701
 10
-9.978268875
 20
-0.7564030156
  0
LINE
  5
3C4
330
397
100
AcDbEntity
  8
0
  6
Continuous
 62
     7
370
    15
100
AcDbLine
 10
-10.0
 20
-0.5367694174
 30
0.0
 11
-10.0
 21
-2.8228345209
 31
0.0
  0
LINE
  5
3C5
330
397
100
AcDbEntity
  8
0
  6
Continuous
 62
     7
370
    15
100
AcDbLine
 10
10.0
 20
-2.8228345209
 30
0.0
 11
10.0
 21
-0.5367694174
 31
0.0
  0
ARC
  5
3C6
330
397
100
AcDbEntity
  8
0
  6
Continuous
 62
     7
370
    15
100
AcDbCircle
 10
8.8749874883
 20
-0.5367304798
 30
0.0
 40
1.124939835845232
100
AcDbArc
 50
348.6531760824
 51
11.9975510635
  0
ARC
  5
3C7
330
397
100
AcDbEntity
  8
0
  6
Continuous
 62
     7
370
    15
100
AcDbCircle
 10
-8.8753480148
 20
-0.536726598
 30
0.0
 40
1.124585324670895
100
AcDbArc
 50
168.0350393856
 51
191.2645819825
  0
VIEWPORT
  5
3F2
330
397
100
AcDbEntity
  8
0
100
AcDbViewport
 10
0.0
 20
0.0
 30
0.0
 40
243.84
 41
204.216
 68
     1
 69
     1
 12
0.3073651616
 22
-6.9066422729
 13
0.0
 23
0.0
 14
10.0
 24
10.0
 15
10.0
 25
10.0
 16
0.0
 26
0.0
 36
1.0
 17
0.0
 27
0.0
 37
0.0
 42
50.0
 43
0.0
 44
0.0
 45
28.0300657814
 50
0.0
 51
0.0
 72
   100
 90
   557152
  1

281
     0
 71
     1
 74
     0
110
0.0
120
0.0
130
0.0
111
1.0
121
0.0
131
0.0
112
0.0
122
1.0
132
0.0
 79
     0
146
0.0
  0
ENDBLK
  5
39A
330
397
100
AcDbEntity
  8
0
100
AcDbBlockEnd
  0
ENDSEC
  0
SECTION
  2
ENTITIES
  0
LWPOLYLINE
  5
44
330
1F
100
AcDbEntity
  8
0
  6
Continuous
 62
     7
100
AcDbPolyline
 90
        9
 70
   128
 43
0.0
 10
0.0
 20
0.0
 10
1.1008483203
 20
-0.2933684439
 10
2.2028823473
 20
-0.5922510702
 10
3.3060568126
 20
-0.8966356018
 10
4.4103264008
 20
-1.2065095353
 10
5.5156457518
 20
-1.521860142
 10
6.6219694621
 20
-1.8426744683
 10
7.7292520871
 20
-2.1689393359
 10
8.8374481428
 20
-2.5006413428
  0
LINE
  5
45
330
1F
100
AcDbEntity
  8
0
  6
CENTERX2
 62
     7
100
AcDbLine
 10
0.0
 20
0.0
 30
0.0
 11
5.1396573285
 21
-20.6468705971
 31
0.0
  0
LINE
  5
46
330
1F
100
AcDbEntity
  8
0
  6
Continuous
 62
     7
100
AcDbLine
 10
0.0
 20
0.0
 30
0.0
 11
0.5171546966
 21
-2.0774976652
 31
0.0
  0
LINE
  5
47
330
1F
100
AcDbEntity
  8
0
  6
Continuous
 62
     7
100
AcDbLine
 10
0.5171546966
 20
-2.0774976652
 30
0.0
 11
9.2723201295
 21
-4.2475954804
 31
0.0
  0
LINE
  5
48
330
1F
100
AcDbEntity
  8
0
  6
Continuous
 62
     7
100
AcDbLine
 10
9.2723201295
 20
-4.2475954804
 30
0.0
 11
8.8374481428
 21
-2.5006413428
 31
0.0
  0
LINE
  5
49
330
1F
100
AcDbEntity
  8
0
  6
CENTERX2
 62
     7
100
AcDbLine
 10
-3.8319569582
 20
0.9498074579
 30
0.0
 11
-3.269374841
 21
1.8058115698
 31
0.0
  0
LINE
  5
4A
330
1F
100
AcDbEntity
  8
0
  6
CENTERX2
 62
     7
100
AcDbLine
 10
-3.269374841
 20
1.8058115698
 30
0.0
 11
-2.6517083442
 21
1.6527137528
 31
0.0
  0
LINE
  5
4B
330
1F
100
AcDbEntity
  8
0
  6
CENTERX2
 62
     7
100
AcDbLine
 10
-2.6517083442
 20
1.6527137528
 30
0.0
 11
-3.066959427
 21
1.0208830859
 31
0.0
  0
LINE
  5
4C
330
1F
100
AcDbEntity
  8
0
  6
CENTERX2
 62
     7
100
AcDbLine
 10
-3.066959427
 20
1.0208830859
 30
0.0
 11
-0.1934674639
 21
0.3086454155
 31
0.0
  0
LINE
  5
4D
330
1F
100
AcDbEntity
  8
0
  6
Continuous
 62
     7
100
AcDbLine
 10
-0.1934674639
 20
0.3086454155
 30
0.0
 11
0.2217836189
 21
0.9404760824
 31
0.0
  0
LINE
  5
4E
330
1F
100
AcDbEntity
  8
0
  6
Continuous
 62
     7
100
AcDbLine
 10
0.2217836189
 20
0.9404760824
 30
0.0
 11
0.8394501157
 21
0.7873782654
 31
0.0
  0
LINE
  5
4F
330
1F
100
AcDbEntity
  8
0
  6
Continuous
 62
     7
100
AcDbLine
 10
0.8394501157
 20
0.7873782654
 30
0.0
 11
0.4241990329
 21
0.1555475985
 31
0.0
  0
LINE
  5
50
330
1F
100
AcDbEntity
  8
0
  6
Continuous
 62
     7
100
AcDbLine
 10
0.4241990329
 20
0.1555475985
 30
0.0
 11
3.646806842
 21
-0.6432236205
 31
0.0
  0
LINE
  5
51
330
1F
100
AcDbEntity
  8
0
  6
Continuous
 62
     7
100
AcDbLine
 10
3.646806842
 20
-0.6432236205
 30
0.0
 11
4.0620579248
 21
-0.0113929536
 31
0.0
  0
LINE
  5
52
330
1F
100
AcDbEntity
  8
0
  6
Continuous
 62
     7
100
AcDbLine
 10
4.0620579248
 20
-0.0113929536
 30
0.0
 11
4.7065794866
 21
-0.1711471975
 31
0.0
  0
LINE
  5
53
330
1F
100
AcDbEntity
  8
0
  6
Continuous
 62
     7
100
AcDbLine
 10
4.7065794866
 20
-0.1711471975
 30
0.0
 11
3.5814152522
 21
-1.8831554212
 31
0.0
  0
LINE
  5
54
330
1F
100
AcDbEntity
  8
0
  6
Continuous
 62
     7
100
AcDbLine
 10
-2.6517083442
 20
1.6527137528
 30
0.0
 11
-3.066959427
 21
1.0208830859
 31
0.0
  0
LINE
  5
55
330
1F
100
AcDbEntity
  8
0
  6
Continuous
 62
     7
100
AcDbLine
 10
-3.066959427
 20
1.0208830859
 30
0.0
 11
-0.1934674639
 21
0.3086454155
 31
0.0
  0
LINE
  5
56
330
1F
100
AcDbEntity
  8
0
  6
Continuous
 62
     7
100
AcDbLine
 10
-2.6517083442
 20
1.6527137528
 30
0.0
 11
-3.269374841
 21
1.8058115698
 31
0.0
  0
LINE
  5
57
330
1F
100
AcDbEntity
  8
0
  6
Continuous
 62
     7
100
AcDbLine
 10
-3.269374841
 20
1.8058115698
 30
0.0
 11
-4.3945390754
 21
0.093803346
 31
0.0
  0
LINE
  5
58
330
1F
100
AcDbEntity
  8
0
  6
CENTERX2
 62
     7
100
AcDbLine
 10
-4.1740416405
 20
1.0345982282
 30
0.0
 11
4.6156171535
 21
-1.144049279
 31
0.0
  0
LINE
  5
59
330
1F
100
AcDbEntity
  8
0
  6
Continuous
 62
     7
100
AcDbLine
 10
2.9368936903
 20
-1.7234011774
 30
0.0
 11
3.5814152522
 21
-1.8831554212
 31
0.0
  0
LINE
  5
5A
330
1F
100
AcDbEntity
  8
0
  6
Continuous
 62
     7
100
AcDbLine
 10
3.3521447731
 20
-1.0915705105
 30
0.0
 11
2.9368936903
 21
-1.7234011774
 31
0.0
  0
LINE
  5
5B
330
1F
100
AcDbEntity
  8
0
  6
Continuous
 62
     7
100
AcDbLine
 10
0.129536964
 20
-0.2927992914
 30
0.0
 11
3.3521447731
 21
-1.0915705105
 31
0.0
  0
LINE
  5
5C
330
1F
100
AcDbEntity
  8
0
  6
Continuous
 62
     7
100
AcDbLine
 10
-0.2857141188
 20
-0.9246299583
 30
0.0
 11
0.129536964
 21
-0.2927992914
 31
0.0
  0
LINE
  5
5D
330
1F
100
AcDbEntity
  8
0
  6
Continuous
 62
     7
100
AcDbLine
 10
-0.9033806155
 20
-0.7715321413
 30
0.0
 11
-0.2857141188
 21
-0.9246299583
 31
0.0
  0
LINE
  5
5E
330
1F
100
AcDbEntity
  8
0
  6
Continuous
 62
     7
100
AcDbLine
 10
-0.4881295328
 20
-0.1397014744
 30
0.0
 11
-0.9033806155
 21
-0.7715321413
 31
0.0
  0
LINE
  5
5F
330
1F
100
AcDbEntity
  8
0
  6
Continuous
 62
     7
100
AcDbLine
 10
-3.3616214959
 20
0.5725361959
 30
0.0
 11
-0.4881295328
 21
-0.1397014744
 31
0.0
  0
LINE
  5
60
330
1F
100
AcDbEntity
  8
0
  6
Continuous
 62
     7
100
AcDbLine
 10
-3.7768725787
 20
-0.059294471
 30
0.0
 11
-3.3616214959
 21
0.5725361959
 31
0.0
  0
LINE
  5
61
330
1F
100
AcDbEntity
  8
0
  6
Continuous
 62
     7
100
AcDbLine
 10
-3.7768725787
 20
-0.059294471
 30
0.0
 11
-4.3945390754
 21
0.093803346
 31
0.0
  0
POINT
  5
62
330
1F
100
AcDbEntity
  8
0
  6
Continuous
 62
     7
100
AcDbPoint
 10
4.1439973694
 20
-1.0271513093
 30
0.0
  0
SPLINE
  5
63
330
1F
100
AcDbEntity
  8
0
  6
Continuous
 62
     7
370
    15
100
AcDbSpline
210
0.0
220
0.0
230
1.0
 70
     8
 71
     3
 72
    26
 73
    22
 74
     0
 42
0.00000001
 43
0.00000001
 12
1.0
 22
0.0
 32
0.0
 13
1.0
 23
0.0
 33
0.0
 40
0.0
 40
0.0
 40
0.0
 40
0.0
 40
0.010191994754701
 40
0.0667286978548935
 40
0.1232871516488603
 40
0.1798700523189227
 40
0.2364789772129406
 40
0.2931144400305585
 40
0.3497760111178835
 40
0.4064624809369625
 40
0.4631720444353374
 40
0.5199024867316036
 40
0.5766513550676756
 40
0.6334161071664722
 40
0.6901942310262604
 40
0.7469833351851652
 40
0.8037812113505005
 40
0.860585873026241
 40
0.9173955745654159
 40
0.9742088151701586
 40
0.9999999999999999
 40
0.9999999999999999
 40
0.9999999999999999
 40
0.9999999999999999
 10
9.321314088018413
 20
3.236552501882849
 30
0.0
 10
9.312990989941536
 20
3.252437336672173
 30
0.0
 10
9.258498271866648
 20
3.356438012363533
 30
0.0
 10
9.142166543100384
 20
3.542354691363871
 30
0.0
 10
8.971728289874669
 20
3.793386066421567
 30
0.0
 10
8.784254362214758
 20
4.036513750909324
 30
0.0
 10
8.581923159545873
 20
4.272039368178009
 30
0.0
 10
8.364584002282717
 20
4.499350859267992
 30
0.0
 10
8.132746550843367
 20
4.718096658152539
 30
0.0
 10
7.886778837288066
 20
4.927872665116825
 30
0.0
 10
7.62712147217034
 20
5.128307961315172
 30
0.0
 10
7.354229057894634
 20
5.319043526257908
 30
0.0
 10
7.068584399486406
 20
5.499739322688692
 30
0.0
 10
6.770693328130536
 20
5.670074046872348
 30
0.0
 10
6.461083471530701
 20
5.8297447545963
 30
0.0
 10
6.140306241160083
 20
5.978473236411716
 30
0.0
 10
5.808921891792056
 20
6.115984507550818
 30
0.0
 10
5.467549186029197
 20
6.242089250492695
 30
0.0
 10
5.116673743134807
 20
6.356377571714718
 30
0.0
 10
4.822762548281867
 20
6.44061706960446
 30
0.0
 10
4.645290536864499
 20
6.485548389647877
 30
0.0
 10
4.589879299215811
 20
6.49957708089283
 30
0.0
  0
SPLINE
  5
64
330
1F
100
AcDbEntity
  8
0
  6
Continuous
 62
     7
370
    15
100
AcDbSpline
210
0.0
220
0.0
230
1.0
 70
     8
 71
     3
 72
    56
 73
    52
 74
     0
 42
0.00000001
 43
0.00000001
 12
1.0
 22
0.0
 32
0.0
 13
1.0
 23
0.0
 33
0.0
 40
0.0
 40
0.0
 40
0.0
 40
0.0
 40
0.0109028511600493
 40
0.0315765327471378
 40
0.052250875738919
 40
0.0729250668899335
 40
0.0935989463031602
 40
0.1142724034183771
 40
0.1349453699595662
 40
0.1556178135621742
 40
0.1762897320664762
 40
0.1969611484732691
 40
0.2176321065249202
 40
0.2383026668542754
 40
0.25897290363213
 40
0.2796429016382954
 40
0.3003127536793383
 40
0.3209825582762678
 40
0.3416524175465772
 40
0.3623224147738792
 40
0.3829926395303776
 40
0.4036631938936739
 40
0.4243341762400968
 40
0.4450056790567984
 40
0.4656777865312301
 40
0.4863505718381906
 40
0.5070240940450642
 40
0.5276983945552884
 40
0.5483734930120435
 40
0.5690493825901496
 40
0.5897260246166115
 40
0.610403342482463
 40
0.6310812148441721
 40
0.651759468166914
 40
0.6724378130125721
 40
0.6931158875478157
 40
0.7137932862984631
 40
0.7344695175118093
 40
0.7551439977674862
 40
0.7758160494713078
 40
0.7964849026068317
 40
0.8171497023475407
 40
0.8378095242531528
 40
0.8584633987121502
 40
0.8791103459532703
 40
0.8997494222384151
 40
0.9203797767051519
 40
0.9410007167546108
 40
0.9616117779941002
 40
0.9822127927950952
 40
1.0
 40
1.0
 40
1.0
 40
1.0
 10
4.589879299215811
 20
6.49957708089283
 30
0.0
 10
4.525094141039586
 20
6.515241720175434
 30
0.0
 10
4.33746517695944
 20
6.560609210570211
 30
0.0
 10
4.021173927277391
 20
6.62636685374767
 30
0.0
 10
3.63928656132307
 20
6.692706803779258
 30
0.0
 10
3.251098805070863
 20
6.746445636880722
 30
0.0
 10
2.857434244684728
 20
6.787700603726606
 30
0.0
 10
2.458945520106008
 20
6.816347980217725
 30
0.0
 10
2.056340336780068
 20
6.832356437782916
 30
0.0
 10
1.650320450017061
 20
6.835697565120563
 30
0.0
 10
1.241596555208411
 20
6.826369834128643
 30
0.0
 10
0.8308828224739546
 20
6.804392139485859
 30
0.0
 10
0.4188968691519247
 20
6.769805457464884
 30
0.0
 10
0.0063582608937395
 20
6.722672293196097
 30
0.0
 10
-0.4060126048245757
 20
6.663076681983344
 30
0.0
 10
-0.8174957264108057
 20
6.591124001736087
 30
0.0
 10
-1.227372701391346
 20
6.506940794164724
 30
0.0
 10
-1.634927937845523
 20
6.410674540871017
 30
0.0
 10
-2.039449728232732
 20
6.30249344396552
 30
0.0
 10
-2.440231501180163
 20
6.182586144672777
 30
0.0
 10
-2.836573118603995
 20
6.051161381812371
 30
0.0
 10
-3.227782192649937
 20
5.908447578889032
 30
0.0
 10
-3.613175209027959
 20
5.754692449826763
 30
0.0
 10
-3.992078585478166
 20
5.590162606004863
 30
0.0
 10
-4.363829801953671
 20
5.415143107284941
 30
0.0
 10
-4.727778508520191
 20
5.22993698649438
 30
0.0
 10
-5.083287608772171
 20
5.034864749800063
 30
0.0
 10
-5.429734316956996
 20
4.830263855735867
 30
0.0
 10
-5.766511187466458
 20
4.616488175964473
 30
0.0
 10
-6.093027115950601
 20
4.393907441123569
 30
0.0
 10
-6.408708312046429
 20
4.162906675298396
 30
0.0
 10
-6.712999244625008
 20
3.923885622710881
 30
0.0
 10
-7.005363561501695
 20
3.677258170100454
 30
0.0
 10
-7.285284735452249
 20
3.423451995717073
 30
0.0
 10
-7.552266990623502
 20
3.162908041283578
 30
0.0
 10
-7.805836382179705
 20
2.896079821257724
 30
0.0
 10
-8.045541890600731
 20
2.623432606439145
 30
0.0
 10
-8.270956271106646
 20
2.345442809138082
 30
0.0
 10
-8.481676797099029
 20
2.062597526413184
 30
0.0
 10
-8.677326185565194
 20
1.775393902058404
 30
0.0
 10
-8.857553515634164
 20
1.484338441745074
 30
0.0
 10
-9.02203528827501
 20
1.189946242538617
 30
0.0
 10
-9.170476061352705
 20
0.892740166909798
 30
0.0
 10
-9.302610718403383
 20
0.5932497192995848
 30
0.0
 10
-9.418200589265073
 20
0.2920103962639816
 30
0.0
 10
-9.517052288317982
 20
-0.010439479356517
 30
0.0
 10
-9.598951379221083
 20
-0.3135533578267758
 30
0.0
 10
-9.66391300045092
 20
-0.6168038227517634
 30
0.0
 10
-9.711249370591664
 20
-0.9195884665472511
 30
0.0
 10
-9.741605664008581
 20
-1.207887820677064
 30
0.0
 10
-9.747671016351315
 20
-1.394309298968438
 30
0.0
 10
-9.75048140123641
 20
-1.480687810098848
 30
0.0
  0
LWPOLYLINE
  5
67
330
1F
100
AcDbEntity
  8
0
  6
Continuous
 62
     7
370
    15
100
AcDbPolyline
 90
      142
 70
   128
 43
0.0
 10
4.551874471
 20
6.4767093836
 10
4.1610378915
 20
6.565731062
 10
3.7621009957
 20
6.6410701677
 10
3.3558558357
 20
6.7025771218
 10
2.9431089737
 20
6.750129808
 10
2.5246798804
 20
6.7836338149
 10
2.1013993081
 20
6.8030226234
 10
1.6741076411
 20
6.8082577386
 10
1.2436532275
 20
6.7993287669
 10
0.8108906947
 20
6.7762534359
 10
0.3766792527
 20
6.7390775594
 10
-0.058119012
 20
6.6878749469
 10
-0.4926408476
 20
6.6227472562
 10
-0.9260235513
 20
6.5438237924
 10
-1.3574066818
 20
6.4512612508
 10
-1.7859337678
 20
6.3452434057
 10
-2.2107540085
 20
6.2259807456
 10
-2.6310239625
 20
6.0937100557
 10
-3.0459092229
 20
5.9486939471
 10
-3.4545860733
 20
5.7912203358
 10
-3.8562431237
 20
5.6216018712
 10
-4.2500829211
 20
5.440175315
 10
-4.6353235332
 20
5.2473008728
 10
-5.0112001003
 20
5.043361479
 10
-5.3769663543
 20
4.8287620364
 10
-5.7318961002
 20
4.6039286123
 10
-6.0752846578
 20
4.3693075926
 10
-6.4064502609
 20
4.1253647957
 10
-6.7247354108
 20
3.8725845474
 10
-7.029508182
 20
3.6114687195
 10
-7.3201634761
 20
3.3425357334
 10
-7.5961242241
 20
3.0663195304
 10
-7.8568425315
 20
2.7833685125
 10
-8.1018007661
 20
2.4942444525
 10
-8.3305125861
 20
2.1995213797
 10
-8.5425239053
 20
1.8997844392
 10
-8.7374137948
 20
1.5956287312
 10
-8.9147953189
 20
1.2876581286
 10
-9.0743163029
 20
0.9764840786
 10
-9.2156600327
 20
0.6627243883
 10
-9.3385458834
 20
0.3470019986
 10
-9.4427298766
 20
0.0299437472
 10
-9.5280051644
 20
-0.2878208762
 10
-9.5942024408
 20
-0.6056609794
 10
-9.6411902772
 20
-0.9229455201
 10
-9.6688753836
 20
-1.2390445595
 10
-9.6772027937
 20
-1.553330512
 10
-9.6661559743
 20
-1.865179392
 10
-9.6357568578
 20
-2.1739720524
 10
-9.5860657989
 20
-2.4790954139
 10
-9.5171814544
 20
-2.7799436825
 10
-9.429240588
 20
-3.0759195516
 10
-9.3224177981
 20
-3.3664353887
 10
-9.1969251714
 20
-3.6509144013
 10
-9.0530118619
 20
-3.9287917827
 10
-8.8909635962
 20
-4.1995158332
 10
-8.7111021061
 20
-4.4625490552
 10
-8.51378449
 20
-4.7173692206
 10
-8.2994025037
 20
-4.9634704074
 10
-8.0683817828
 20
-5.2003640047
 10
-7.8211809975
 20
-5.427579682
 10
-7.5582909422
 20
-5.6446663237
 10
-7.2802335608
 20
-5.8511929244
 10
-6.9875609103
 20
-6.0467494446
 10
-6.6808540652
 20
-6.2309476249
 10
-6.3607219637
 20
-6.4034217569
 10
-6.0278001984
 20
-6.5638294092
 10
-5.6827497545
 20
-6.7118521073
 10
-5.3262556979
 20
-6.8471959657
 10
-4.9590258145
 20
-6.9695922717
 10
-4.5817892052
 20
-7.0787980189
 10
-4.1952948384
 20
-7.1745963893
 10
-3.8003100628
 20
-7.2567971841
 10
-3.3976190843
 20
-7.3252372013
 10
-2.9880214084
 20
-7.3797805595
 10
-2.5723302534
 20
-7.420318968
 10
-2.1513709357
 20
-7.4467719414
 10
-1.725979231
 20
-7.4590869599
 10
-1.2969997151
 20
-7.4572395732
 10
-0.8652840872
 20
-7.441233449
 10
-0.4316894786
 20
-7.411100366
 10
0.0029232486
 20
-7.3669001507
 10
0.4376912111
 20
-7.3087205585
 10
0.8717512173
 20
-7.2366770996
 10
1.3042414814
 20
-7.1509128096
 10
1.7343033339
 20
-7.0515979657
 10
2.1610829268
 20
-6.9389297481
 10
2.5837329287
 20
-6.8131318492
 10
3.0014142072
 20
-6.6744540292
 10
3.4132974948
 20
-6.5231716199
 10
3.8185650354
 20
-6.3595849787
 10
4.2164122076
 20
-6.1840188916
 10
4.6060491229
 20
-5.9968219288
 10
4.9867021931
 20
-5.7983657527
 10
5.3576156669
 20
-5.5890443795
 10
5.7180531299
 20
-5.3692733975
 10
6.0672989668
 20
-5.1394891416
 10
6.4046597823
 20
-4.9001478272
 10
6.7294657779
 20
-4.6517246443
 10
7.0410720812
 20
-4.3947128141
 10
7.3388600268
 20
-4.1296226099
 10
7.6222383843
 20
-3.8569803437
 10
7.8906445322
 20
-3.5773273215
 10
8.143545575
 20
-3.2912187685
 10
8.3804394009
 20
-2.9992227267
 10
8.6008556793
 20
-2.7019189273
 10
8.804356794
 20
-2.3998976393
 10
8.9905387124
 20
-2.0937584982
 10
9.1590317876
 20
-1.7841093149
 10
9.3095014921
 20
-1.4715648691
 10
9.4416490823
 20
-1.1567456889
 10
9.5552121913
 20
-0.8402768186
 10
9.6499653502
 20
-0.522786578
 10
9.7257204352
 20
-0.2049053144
 10
9.7823270418
 20
0.1127358482
 10
9.8196727826
 20
0.4295062628
 10
9.8376835113
 20
0.7447770111
 10
9.836323469
 20
1.057922152
 10
9.8155953562
 20
1.3683199651
 10
9.7755403266
 20
1.675354184
 10
9.7162379056
 20
1.9784152208
 10
9.6378058328
 20
2.276901376
 10
9.5403998278
 20
2.5702200327
 10
9.4242132812
 20
2.857788834
 10
9.2894768707
 20
3.1390368387
 10
9.1364581028
 20
3.4134056549
 10
8.9654607822
 20
3.6803505487
 10
8.7768244083
 20
3.9393415256
 10
8.5709235011
 20
4.1898643832
 10
8.3481668578
 20
4.4314217314
 10
8.1089967411
 20
4.6635339805
 10
7.8538880011
 20
4.8857402932
 10
7.5833471326
 20
5.0975994993
 10
7.2979112695
 20
5.2986909719
 10
6.9981471183
 20
5.4886154627
 10
6.6846498329
 20
5.6669958941
 10
6.3580418332
 20
5.8334781083
 10
6.018971569
 20
5.9877315702
 10
5.6681122332
 20
6.1294500239
 10
5.3061604243
 20
6.2583521005
 10
4.9338347642
 20
6.3741818768
 10
4.551874471
 20
6.4767093836
  0
LWPOLYLINE
  5
6A
330
1F
100
AcDbEntity
  8
0
  6
Continuous
 62
     7
370
    15
100
AcDbPolyline
 90
       52
 70
   128
 43
0.0
 10
-3.9954539001
 20
-8.9437157616
 10
-3.6037668102
 20
-9.0329859785
 10
-3.204012823
 20
-9.1086405004
 10
-2.7969744756
 20
-9.17053123
 10
-2.3834485648
 20
-9.2185370134
 10
-1.9642445868
 20
-9.2525638768
 10
-1.5401831532
 20
-9.2725452112
 10
-1.1120943842
 20
-9.2784419022
 10
-0.6808162835
 20
-9.2702424067
 10
-0.2471930985
 20
-9.2479627755
 10
0.1879263333
 20
-9.2116466222
 10
0.6236902451
 20
-9.1613650373
 10
1.0592456085
 20
-9.0972164493
 10
1.4937398035
 20
-9.0193264322
 10
1.9263222873
 20
-8.9278474592
 10
2.3561462594
 20
-8.8229586049
 10
2.7823703191
 20
-8.704865194
 10
3.2041601129
 20
-8.5737983999
 10
3.6206899674
 20
-8.4300147921
 10
4.0311445058
 20
-8.2737958337
 10
4.4347202442
 20
-8.1054473306
 10
4.8306271641
 20
-7.925298833
 10
5.218090259
 20
-7.7337029901
 10
5.5963510518
 20
-7.5310348595
 10
5.9646690793
 20
-7.3176911738
 10
6.3223233415
 20
-7.0940895633
 10
6.6686137135
 20
-6.8606677385
 10
7.0028623155
 20
-6.6178826337
 10
7.3244148404
 20
-6.3662095121
 10
7.6326418338
 20
-6.1061410356
 10
7.9269399271
 20
-5.8381863006
 10
8.2067330177
 20
-5.5628698409
 10
8.4714733978
 20
-5.2807306016
 10
8.7206428254
 20
-4.9923208834
 10
8.9537535398
 20
-4.6982052618
 10
9.1703492157
 20
-4.398959482
 10
9.370005857
 20
-4.0951693317
 10
9.5523326265
 20
-3.7874294944
 10
9.7169726109
 20
-3.4763423852
 10
9.8636035196
 20
-3.1625169718
 10
9.9919383159
 20
-2.8465675822
 10
10.1017257783
 20
-2.5291127021
 10
10.1927509928
 20
-2.2107737643
 10
10.2648357731
 20
-1.8921739323
 10
10.3178390099
 20
-1.5739368802
 10
10.351656947
 20
-1.256685572
 10
10.3662233841
 20
-0.941041042
 10
10.3615098067
 20
-0.6276211793
 10
10.3375254419
 20
-0.3170395178
 10
10.2943172402
 20
-0.0099040358
 10
10.2319697837
 20
0.2931840345
 10
10.2210143597
 20
0.3380990809
  0
LWPOLYLINE
  5
6C
330
1F
100
AcDbEntity
  8
0
  6
Continuous
 62
     8
370
    15
100
AcDbPolyline
 90
       65
 70
   128
 43
0.0
 10
9.9477899052
 20
0.7714724956
 10
9.9474070149
 20
0.7414149715
 10
9.9328405778
 20
0.4257704416
 10
9.8990226407
 20
0.1085191334
 10
9.8460194038
 20
-0.2097179187
 10
9.7739346235
 20
-0.5283177507
 10
9.6829094091
 20
-0.8466566885
 10
9.5731219467
 20
-1.1641115686
 10
9.4447871504
 20
-1.4800609583
 10
9.2981562416
 20
-1.7938863717
 10
9.1335162572
 20
-2.1049734808
 10
8.9511894878
 20
-2.4127133182
 10
8.7515328465
 20
-2.7165034684
 10
8.5349371705
 20
-3.0157492482
 10
8.3018264561
 20
-3.3098648698
 10
8.0526570285
 20
-3.598274588
 10
7.7879166485
 20
-3.8804138274
 10
7.5081235578
 20
-4.155730287
 10
7.2138254646
 20
-4.423685022
 10
6.9055984711
 20
-4.6837534985
 10
6.5840459463
 20
-4.9354266201
 10
6.2497973442
 20
-5.1782117249
 10
5.9035069722
 20
-5.4116335497
 10
5.54585271
 20
-5.6352351603
 10
5.1775346826
 20
-5.8485788459
 10
4.7992738898
 20
-6.0512469765
 10
4.4118107948
 20
-6.2428428195
 10
4.015903875
 20
-6.4229913171
 10
3.6123281366
 20
-6.5913398201
 10
3.2018735981
 20
-6.7475587785
 10
2.7853437436
 20
-6.8913423863
 10
2.3635539499
 20
-7.0224091804
 10
1.9373298901
 20
-7.1405025913
 10
1.5075059181
 20
-7.2453914457
 10
1.0749234343
 20
-7.3368704186
 10
0.6404292393
 20
-7.4147604357
 10
0.2048738758
 20
-7.4789090237
 10
-0.2308900359
 20
-7.5291906086
 10
-0.6660094677
 20
-7.5655067619
 10
-1.0996326528
 20
-7.5877863931
 10
-1.5309107534
 20
-7.5959858886
 10
-1.9589995225
 20
-7.5900891977
 10
-2.3830609561
 20
-7.5701078632
 10
-2.802264934
 20
-7.5360809998
 10
-3.2157908449
 20
-7.4880752165
 10
-3.6228291923
 20
-7.4261844868
 10
-4.0225831795
 20
-7.3505299649
 10
-4.4142702694
 20
-7.261259748
 10
-4.797123716
 20
-7.1585485867
 10
-5.1703940657
 20
-7.042597543
 10
-5.5333506244
 20
-6.9136335965
 10
-5.8852828875
 20
-6.7719092001
 10
-6.2255019311
 20
-6.617701786
 10
-6.5533417604
 20
-6.4513132226
 10
-6.8681606136
 20
-6.2730692231
 10
-7.1693422179
 20
-6.0833187085
 10
-7.4562969963
 20
-5.8824331246
 10
-7.7284632213
 20
-5.6708057141
 10
-7.9853081147
 20
-5.4488507478
 10
-8.2263288906
 20
-5.2170027128
 10
-8.4510537395
 20
-4.9757154625
 10
-8.6590427519
 20
-4.7254613282
 10
-8.8498887796
 20
-4.4667301941
 10
-9.0232182326
 20
-4.2000285383
 10
-9.0954559359
 20
-4.0774705863
  0
LINE
  5
6D
330
1F
100
AcDbEntity
  8
0
  6
Continuous
 62
     7
370
    15
100
AcDbLine
 10
-9.6055213357
 20
-2.8106383977
 30
0.0
 11
-9.1867049664
 21
-4.4930944113
 31
0.0
  0
LINE
  5
6E
330
1F
100
AcDbEntity
  8
0
  6
Continuous
 62
     7
370
    15
100
AcDbLine
 10
10.2210143597
 20
0.3380990809
 30
0.0
 11
9.8021979904
 21
2.0205550945
 31
0.0
  0
ARC
  5
6F
330
1F
100
AcDbEntity
  8
0
  6
Continuous
 62
     7
370
    15
100
AcDbCircle
 10
5.0084371795
 20
0.8273587615
 30
0.0
 40
4.939668877927207
100
AcDbArc
 50
359.3517550338
 51
29.0356251754
  0
ARC
  5
70
330
1F
100
AcDbEntity
  8
0
  6
Continuous
 62
     7
370
    15
100
AcDbCircle
 10
-4.8030624929
 20
-1.615291954
 30
0.0
 40
4.948430568042509
100
AcDbArc
 50
178.5963263643
 51
209.8392025777
  0
ARC
  5
71
330
1F
100
AcDbEntity
  8
0
  6
Continuous
 62
     7
370
    15
100
AcDbCircle
 10
-2.9002520114
 20
-2.4133855664
 30
0.0
 40
6.621531517400448
100
AcDbArc
 50
198.3054492881
 51
260.4795228855
  0
LINE
  5
72
330
1B
100
AcDbEntity
 67
     1
  8
0
  6
CENTERX2
 62
     7
100
AcDbLine
 10
-4.3767956044
 20
0.0
 30
0.0
 11
-4.3767956044
 21
-1.2466893708
 31
0.0
  0
LINE
  5
73
330
1B
100
AcDbEntity
 67
     1
  8
0
  6
CENTERX2
 62
     7
100
AcDbLine
 10
-4.3767956044
 20
-1.2466893708
 30
0.0
 11
-3.6713075111
 21
-1.2466893708
 31
0.0
  0
LINE
  5
74
330
1B
100
AcDbEntity
 67
     1
  8
0
  6
CENTERX2
 62
     7
100
AcDbLine
 10
-3.6713075111
 20
-1.2466893708
 30
0.0
 11
-3.6713075111
 21
-0.3264875101
 31
0.0
  0
LINE
  5
75
330
1B
100
AcDbEntity
 67
     1
  8
0
  6
CENTERX2
 62
     7
100
AcDbLine
 10
-3.6713075111
 20
-0.3264875101
 30
0.0
 11
-0.3892542076
 21
-0.3264875101
 31
0.0
  0
LINE
  5
76
330
1B
100
AcDbEntity
 67
     1
  8
0
  6
Continuous
 62
     7
100
AcDbLine
 10
-0.3892542076
 20
-0.3264875101
 30
0.0
 11
-0.3892542076
 21
-1.2466893708
 31
0.0
  0
LINE
  5
77
330
1B
100
AcDbEntity
 67
     1
  8
0
  6
Continuous
 62
     7
100
AcDbLine
 10
-0.3892542076
 20
-1.2466893708
 30
0.0
 11
0.3162338857
 21
-1.2466893708
 31
0.0
  0
LINE
  5
78
330
1B
100
AcDbEntity
 67
     1
  8
0
  6
Continuous
 62
     7
100
AcDbLine
 10
0.3162338857
 20
-1.2466893708
 30
0.0
 11
0.3162338857
 21
-0.3264875101
 31
0.0
  0
LINE
  5
79
330
1B
100
AcDbEntity
 67
     1
  8
0
  6
Continuous
 62
     7
100
AcDbLine
 10
0.3162338857
 20
-0.3264875101
 30
0.0
 11
3.9970413288
 21
-0.3264875101
 31
0.0
  0
LINE
  5
7A
330
1B
100
AcDbEntity
 67
     1
  8
0
  6
Continuous
 62
     7
100
AcDbLine
 10
3.9970413288
 20
-0.3264875101
 30
0.0
 11
3.9970413288
 21
-1.2466893708
 31
0.0
  0
LINE
  5
7B
330
1B
100
AcDbEntity
 67
     1
  8
0
  6
Continuous
 62
     7
100
AcDbLine
 10
3.9970413288
 20
-1.2466893708
 30
0.0
 11
4.7332028174
 21
-1.2466893708
 31
0.0
  0
LINE
  5
7C
330
1B
100
AcDbEntity
 67
     1
  8
0
  6
Continuous
 62
     7
100
AcDbLine
 10
4.7332028174
 20
-1.2466893708
 30
0.0
 11
4.7332028174
 21
1.2466893708
 31
0.0
  0
LINE
  5
7D
330
1B
100
AcDbEntity
 67
     1
  8
0
  6
Continuous
 62
     7
100
AcDbLine
 10
-3.6713075111
 20
-1.2466893708
 30
0.0
 11
-3.6713075111
 21
-0.3264875101
 31
0.0
  0
LINE
  5
7E
330
1B
100
AcDbEntity
 67
     1
  8
0
  6
Continuous
 62
     7
100
AcDbLine
 10
-3.6713075111
 20
-0.3264875101
 30
0.0
 11
-0.3892542076
 21
-0.3264875101
 31
0.0
  0
LINE
  5
7F
330
1B
100
AcDbEntity
 67
     1
  8
0
  6
Continuous
 62
     7
100
AcDbLine
 10
-3.6713075111
 20
-1.2466893708
 30
0.0
 11
-4.3767956044
 21
-1.2466893708
 31
0.0
  0
LINE
  5
80
330
1B
100
AcDbEntity
 67
     1
  8
0
  6
Continuous
 62
     7
100
AcDbLine
 10
-4.3767956044
 20
-1.2466893708
 30
0.0
 11
-4.3767956044
 21
1.2466893708
 31
0.0
  0
LINE
  5
81
330
1B
100
AcDbEntity
 67
     1
  8
0
  6
CENTERX2
 62
     7
100
AcDbLine
 10
-4.7675188693
 20
0.0
 30
0.0
 11
5.2718788569
 21
0.0
 31
0.0
  0
LINE
  5
82
330
1B
100
AcDbEntity
 67
     1
  8
0
  6
Continuous
 62
     7
100
AcDbLine
 10
3.9970413288
 20
1.2466893708
 30
0.0
 11
4.7332028174
 21
1.2466893708
 31
0.0
  0
LINE
  5
83
330
1B
100
AcDbEntity
 67
     1
  8
0
  6
Continuous
 62
     7
100
AcDbLine
 10
3.9970413288
 20
0.3264875101
 30
0.0
 11
3.9970413288
 21
1.2466893708
 31
0.0
  0
LINE
  5
84
330
1B
100
AcDbEntity
 67
     1
  8
0
  6
Continuous
 62
     7
100
AcDbLine
 10
0.3162338857
 20
0.3264875101
 30
0.0
 11
3.9970413288
 21
0.3264875101
 31
0.0
  0
LINE
  5
85
330
1B
100
AcDbEntity
 67
     1
  8
0
  6
Continuous
 62
     7
100
AcDbLine
 10
0.3162338857
 20
1.2466893708
 30
0.0
 11
0.3162338857
 21
0.3264875101
 31
0.0
  0
LINE
  5
86
330
1B
100
AcDbEntity
 67
     1
  8
0
  6
Continuous
 62
     7
100
AcDbLine
 10
-0.3892542076
 20
1.2466893708
 30
0.0
 11
0.3162338857
 21
1.2466893708
 31
0.0
  0
LINE
  5
87
330
1B
100
AcDbEntity
 67
     1
  8
0
  6
Continuous
 62
     7
100
AcDbLine
 10
-0.3892542076
 20
0.3264875101
 30
0.0
 11
-0.3892542076
 21
1.2466893708
 31
0.0
  0
LINE
  5
88
330
1B
100
AcDbEntity
 67
     1
  8
0
  6
Continuous
 62
     7
100
AcDbLine
 10
-3.6713075111
 20
0.3264875101
 30
0.0
 11
-0.3892542076
 21
0.3264875101
 31
0.0
  0
LINE
  5
89
330
1B
100
AcDbEntity
 67
     1
  8
0
  6
Continuous
 62
     7
100
AcDbLine
 10
-3.6713075111
 20
1.2466893708
 30
0.0
 11
-3.6713075111
 21
0.3264875101
 31
0.0
  0
LINE
  5
8A
330
1B
100
AcDbEntity
 67
     1
  8
0
  6
Continuous
 62
     7
100
AcDbLine
 10
-3.6713075111
 20
1.2466893708
 30
0.0
 11
-4.3767956044
 21
1.2466893708
 31
0.0
  0
POINT
  5
8B
330
1B
100
AcDbEntity
 67
     1
  8
0
  6
Continuous
 62
     7
100
AcDbPoint
 10
4.7332028174
 20
0.0
 30
0.0
  0
CIRCLE
  5
97
330
1B
100
AcDbEntity
 67
     1
  8
0
  6
Continuous
 62
     7
370
    15
100
AcDbCircle
 10
0.0
 20
0.0
 30
0.0
 40
9.999999999999998
  0
SPLINE
  5
CA
330
1B
100
AcDbEntity
 67
     1
  8
0
  6
Continuous
 62
     7
370
    15
100
AcDbSpline
210
0.0
220
0.0
230
1.0
 70
     8
 71
     3
 72
    11
 73
     7
 74
     0
 42
0.00000001
 43
0.00000001
 12
1.0
 22
0.0
 32
0.0
 13
1.0
 23
0.0
 33
0.0
 40
0.0
 40
0.0
 40
0.0
 40
0.0
 40
0.2636542475285948
 40
0.5199803460206652
 40
0.7671028029252633
 40
1.0
 40
1.0
 40
1.0
 40
1.0
 10
4.409204740856848
 20
-4.319874718534866
 30
0.0
 10
4.430496040050595
 20
-4.325804614152441
 30
0.0
 10
4.472486856530022
 20
-4.337499586655239
 30
0.0
 10
4.53574607364406
 20
-4.349228164304664
 30
0.0
 10
4.597053070724772
 20
-4.356830255554923
 30
0.0
 10
4.637282348163851
 20
-4.357844273234214
 30
0.0
 10
4.656800894703002
 20
-4.358336256996405
 30
0.0
  0
SPLINE
  5
CB
330
1B
100
AcDbEntity
 67
     1
  8
0
  6
Continuous
 62
     7
370
    15
100
AcDbSpline
210
0.0
220
0.0
230
1.0
 70
     8
 71
     3
 72
    15
 73
    11
 74
     0
 42
0.00000001
 43
0.00000001
 12
1.0
 22
0.0
 32
0.0
 13
1.0
 23
0.0
 33
0.0
 40
0.0
 40
0.0
 40
0.0
 40
0.0
 40
0.1103603399843251
 40
0.2211857967812613
 40
0.3343638213725813
 40
0.4529765798274169
 40
0.5772343082002656
 40
0.7088043240432427
 40
0.8493551270704526
 40
1.0
 40
1.0
 40
1.0
 40
1.0
 10
4.60231371521582
 20
-3.640387539047687
 30
0.0
 10
4.581956476691991
 20
-3.639615094908069
 30
0.0
 10
4.541156203479721
 20
-3.638066951140892
 30
0.0
 10
4.480537209026625
 20
-3.625470119345068
 30
0.0
 10
4.420649111377931
 20
-3.605083720154901
 30
0.0
 10
4.361158870718993
 20
-3.576957451415113
 30
0.0
 10
4.302657031059333
 20
-3.540149040538016
 30
0.0
 10
4.243599699760663
 20
-3.496976994591414
 30
0.0
 10
4.185963652783478
 20
-3.444304454918772
 30
0.0
 10
4.149317050847237
 20
-3.405073827747588
 30
0.0
 10
4.130358587010692
 20
-3.384778564688713
 30
0.0
  0
SPLINE
  5
CC
330
1B
100
AcDbEntity
 67
     1
  8
0
  6
Continuous
 62
     7
370
    15
100
AcDbSpline
210
0.0
220
0.0
230
1.0
 70
     8
 71
     3
 72
    15
 73
    11
 74
     0
 42
0.00000001
 43
0.00000001
 12
1.0
 22
0.0
 32
0.0
 13
1.0
 23
0.0
 33
0.0
 40
0.0
 40
0.0
 40
0.0
 40
0.0
 40
0.1327548717475869
 40
0.2572338481110649
 40
0.3786007316763529
 40
0.5014062774984538
 40
0.6239419536469533
 40
0.7436418348746454
 40
0.8681208112381225
 40
1.0
 40
1.0
 40
1.0
 40
1.0
 10
-4.130859361707257
 20
2.917304768644621
 30
0.0
 10
-4.132250206326088
 20
2.880232081243836
 30
0.0
 10
-4.134945190764072
 20
2.808397805677251
 30
0.0
 10
-4.164560885962951
 20
2.706213931145752
 30
0.0
 10
-4.210442548137239
 20
2.613696863890889
 30
0.0
 10
-4.275096289984223
 20
2.533611118204406
 30
0.0
 10
-4.35341222069792
 20
2.467799350543413
 30
0.0
 10
-4.443913635157484
 20
2.418850406710323
 30
0.0
 10
-4.54586268062584
 20
2.390607090474878
 30
0.0
 10
-4.617330903922711
 20
2.387072036327879
 30
0.0
 10
-4.654096541194437
 20
2.385253486593339
 30
0.0
  0
SPLINE
  5
CD
330
1B
100
AcDbEntity
 67
     1
  8
0
  6
Continuous
 62
     7
370
    15
100
AcDbSpline
210
0.0
220
0.0
230
1.0
 70
     8
 71
     3
 72
    15
 73
    11
 74
     0
 42
0.00000001
 43
0.00000001
 12
1.0
 22
0.0
 32
0.0
 13
1.0
 23
0.0
 33
0.0
 40
0.0
 40
0.0
 40
0.0
 40
0.0
 40
0.1274068638107682
 40
0.2511055387650937
 40
0.3729077916389047
 40
0.4944963015983261
 40
0.6161714362084776
 40
0.740562898172679
 40
0.86760485060527
 40
1.0
 40
1.0
 40
1.0
 40
1.0
 10
-0.8496093617072555
 20
-5.47372087238102
 30
0.0
 10
-0.820053982434361
 20
-5.503527194689607
 30
0.0
 10
-0.7618034360057969
 20
-5.562272323468696
 30
0.0
 10
-0.6644599409181883
 20
-5.637518344461636
 30
0.0
 10
-0.5624259811303275
 20
-5.702638658486289
 30
0.0
 10
-0.453655220592298
 20
-5.754266514273605
 30
0.0
 10
-0.3398402145207834
 20
-5.796053282642399
 30
0.0
 10
-0.2200758663659985
 20
-5.824121549376105
 30
0.0
 10
-0.0948515766947528
 20
-5.842745092153586
 30
0.0
 10
-0.0094017524557599
 20
-5.844579575988434
 30
0.0
 10
0.0342047408568458
 20
-5.845515744175892
 30
0.0
  0
SPLINE
  5
CF
330
1B
100
AcDbEntity
 67
     1
  8
0
  6
Continuous
 62
     7
370
    15
100
AcDbSpline
210
0.0
220
0.0
230
1.0
 70
     8
 71
     3
 72
    23
 73
    19
 74
     0
 42
0.00000001
 43
0.00000001
 12
1.0
 22
0.0
 32
0.0
 13
1.0
 23
0.0
 33
0.0
 40
0.0
 40
0.0
 40
0.0
 40
0.0
 40
0.0667554131374502
 40
0.1317279436682001
 40
0.1948100844364487
 40
0.2568986387839163
 40
0.3187508905638004
 40
0.3803512888945387
 40
0.4433244176166943
 40
0.5074626919635752
 40
0.5715056738698079
 40
0.6333612917281038
 40
0.6939415159323152
 40
0.7539288461040362
 40
0.8138015296774557
 40
0.8745236442162166
 40
0.9362219827335226
 40
1.0
 40
1.0
 40
1.0
 40
1.0
 10
5.869140638292744
 20
-3.032214462124609
 30
0.0
 10
5.867785070547521
 20
-2.984358014882265
 30
0.0
 10
5.865110139134643
 20
-2.889923255359174
 30
0.0
 10
5.847658662755827
 20
-2.751070754970479
 30
0.0
 10
5.816856493492592
 20
-2.618081405984368
 30
0.0
 10
5.774546632163779
 20
-2.490599198817096
 30
0.0
 10
5.718806098119288
 20
-2.369561097882175
 30
0.0
 10
5.651770477134579
 20
-2.253713238071458
 30
0.0
 10
5.572306377772888
 20
-2.14391552140393
 30
0.0
 10
5.481193615087915
 20
-2.041293507719478
 30
0.0
 10
5.382142090140563
 20
-1.947495017045151
 30
0.0
 10
5.276675598047956
 20
-1.864980305122217
 30
0.0
 10
5.165535072654015
 20
-1.795544843515791
 30
0.0
 10
5.048717832227648
 20
-1.739429251582133
 30
0.0
 10
4.926894094300738
 20
-1.695031594183376
 30
0.0
 10
4.800026884276511
 20
-1.662712218881718
 30
0.0
 10
4.667499643626869
 20
-1.644178852855791
 30
0.0
 10
4.577530866552092
 20
-1.641665197648747
 30
0.0
 10
4.531800894703002
 20
-1.640387539047687
 30
0.0
  0
SPLINE
  5
D0
330
1B
100
AcDbEntity
 67
     1
  8
0
  6
Continuous
 62
     7
370
    15
100
AcDbSpline
210
0.0
220
0.0
230
1.0
 70
     8
 71
     3
 72
    31
 73
    27
 74
     0
 42
0.00000001
 43
0.00000001
 12
1.0
 22
0.0
 32
0.0
 13
1.0
 23
0.0
 33
0.0
 40
0.0
 40
0.0
 40
0.0
 40
0.0
 40
0.0728890266200403
 40
0.1401861299444957
 40
0.2022774341249592
 40
0.2588951317514633
 40
0.3104829424654791
 40
0.3570952441313355
 40
0.3985135666534658
 40
0.4350375108701165
 40
0.4692514858292879
 40
0.5028050278902749
 40
0.5362104463185622
 40
0.5693793599392069
 40
0.6028014750483937
 40
0.636665798336777
 40
0.6709286568940436
 40
0.7058030002293131
 40
0.7411890612458781
 40
0.7763043110764617
 40
0.8120043009129349
 40
0.8479689758088955
 40
0.8845217611964791
 40
0.9219741585442052
 40
0.9601981758096081
 40
1.0
 40
1.0
 40
1.0
 40
1.0
 10
4.397986792138896
 20
1.769868871208724
 30
0.0
 10
4.453281729807417
 20
1.770065136502716
 30
0.0
 10
4.559629470705095
 20
1.770442609948074
 30
0.0
 10
4.712977104462698
 20
1.776398141043843
 30
0.0
 10
4.853847994810004
 20
1.78468575137442
 30
0.0
 10
4.98245071384206
 20
1.797332864706638
 30
0.0
 10
5.098730243196199
 20
1.814101408244086
 30
0.0
 10
5.202803122138787
 20
1.833868746247827
 30
0.0
 10
5.294666308722221
 20
1.856397865901573
 30
0.0
 10
5.375094542054918
 20
1.884470926482151
 30
0.0
 10
5.447677045541205
 20
1.916136913205076
 30
0.0
 10
5.515334029692053
 20
1.952521712596756
 30
0.0
 10
5.579558108186897
 20
1.993220168409082
 30
0.0
 10
5.63992001242505
 20
2.039303167176929
 30
0.0
 10
5.696944301546084
 20
2.089941687105493
 30
0.0
 10
5.750738555290288
 20
2.145186700837292
 30
0.0
 10
5.800542610991677
 20
2.205506663335123
 30
0.0
 10
5.846048079915678
 20
2.270520428983422
 30
0.0
 10
5.887522651886119
 20
2.338913419590277
 30
0.0
 10
5.924177474795622
 20
2.41077953917815
 30
0.0
 10
5.953985237709865
 20
2.486168765846659
 30
0.0
 10
5.980323591565966
 20
2.563991562282845
 30
0.0
 10
5.999294254576449
 20
2.645360420629563
 30
0.0
 10
6.012488073183522
 20
2.72948320131539
 30
0.0
 10
6.022148071024645
 20
2.816656025459892
 30
0.0
 10
6.022703474718059
 20
2.875877371754608
 30
0.0
 10
6.022986792138897
 20
2.906086819926673
 30
0.0
  0
SPLINE
  5
D1
330
1B
100
AcDbEntity
 67
     1
  8
0
  6
Continuous
 62
     7
370
    15
100
AcDbSpline
210
0.0
220
0.0
230
1.0
 70
     8
 71
     3
 72
    15
 73
    11
 74
     0
 42
0.00000001
 43
0.00000001
 12
1.0
 22
0.0
 32
0.0
 13
1.0
 23
0.0
 33
0.0
 40
0.0
 40
0.0
 40
0.0
 40
0.0
 40
0.1235225888124387
 40
0.2451066492784791
 40
0.3672656097279743
 40
0.494690545642114
 40
0.6223238729478106
 40
0.7460028360253874
 40
0.8722531479452946
 40
1.0
 40
1.0
 40
1.0
 40
1.0
 10
0.0293970485491547
 20
-5.127567026227173
 30
0.0
 10
0.0033836722771824
 20
-5.126286595082
 30
0.0
 10
-0.0482348337446196
 20
-5.123745827513553
 30
0.0
 10
-0.1237165395820223
 20
-5.104782211519594
 30
0.0
 10
-0.1953990122045929
 20
-5.072859324028754
 30
0.0
 10
-0.2617979100705072
 20
-5.028839543452922
 30
0.0
 10
-0.3219547515628643
 20
-4.975973653060382
 30
0.0
 10
-0.3713261622348076
 20
-4.913364979123519
 30
0.0
 10
-0.412390960817173
 20
-4.844764515861592
 30
0.0
 10
-0.4297972475131858
 20
-4.79408282156138
 30
0.0
 10
-0.4385516693995641
 20
-4.768592667252815
 30
0.0
  0
SPLINE
  5
D2
330
1B
100
AcDbEntity
 67
     1
  8
0
  6
Continuous
 62
     7
370
    15
100
AcDbSpline
210
0.0
220
0.0
230
1.0
 70
     8
 71
     3
 72
    23
 73
    19
 74
     0
 42
0.00000001
 43
0.00000001
 12
1.0
 22
0.0
 32
0.0
 13
1.0
 23
0.0
 33
0.0
 40
0.0
 40
0.0
 40
0.0
 40
0.0
 40
0.0659348176256769
 40
0.1300372587941673
 40
0.192362070249651
 40
0.2538195214289187
 40
0.3141994357375427
 40
0.3746698781567767
 40
0.4351541180379881
 40
0.4964786684939719
 40
0.5578092661396404
 40
0.619030922982112
 40
0.6796911875192905
 40
0.7409612864102642
 40
0.8033752905051762
 40
0.8668176884999612
 40
0.932317977174506
 40
0.9999999999999999
 40
0.9999999999999999
 40
0.9999999999999999
 40
0.9999999999999999
 10
4.531800894703002
 20
-1.640387539047687
 30
0.0
 10
4.490905942122662
 20
-1.641432743321678
 30
0.0
 10
4.410252537388075
 20
-1.643494104883964
 30
0.0
 10
4.291453613026245
 20
-1.656164319075547
 30
0.0
 10
4.176918257583634
 20
-1.678565376581937
 30
0.0
 10
4.067254528793902
 20
-1.710985507031262
 30
0.0
 10
3.961308580642314
 20
-1.750887286558572
 30
0.0
 10
3.860305178623535
 20
-1.8007920025422
 30
0.0
 10
3.763689291768493
 20
-1.859749401976196
 30
0.0
 10
3.671735272558048
 20
-1.926683510890452
 30
0.0
 10
3.585937243289338
 20
-2.002082188475427
 30
0.0
 10
3.507629893468276
 20
-2.084619031943154
 30
0.0
 10
3.436339140543122
 20
-2.173253704681236
 30
0.0
 10
3.373590494724154
 20
-2.269079689070539
 30
0.0
 10
3.319580654443256
 20
-2.371955407739602
 30
0.0
 10
3.271683626134493
 20
-2.480668446649874
 30
0.0
 10
3.232479428837026
 20
-2.596354116712248
 30
0.0
 10
3.212584427753891
 20
-2.67655385060873
 30
0.0
 10
3.202473971626077
 20
-2.717310615970764
 30
0.0
  0
SPLINE
  5
D3
330
1B
100
AcDbEntity
 67
     1
  8
0
  6
Continuous
 62
     7
370
    15
100
AcDbSpline
210
0.0
220
0.0
230
1.0
 70
     8
 71
     3
 72
    19
 73
    15
 74
     0
 42
0.00000001
 43
0.00000001
 12
1.0
 22
0.0
 32
0.0
 13
1.0
 23
0.0
 33
0.0
 40
0.0
 40
0.0
 40
0.0
 40
0.0
 40
0.1038439242634204
 40
0.2011148859465232
 40
0.2911157193792173
 40
0.3743484039713636
 40
0.4507073961858714
 40
0.5200404120163613
 40
0.583258322445337
 40
0.6395782998253259
 40
0.7415365099482676
 40
0.8350600486817362
 40
0.9208729600458337
 40
1.0
 40
1.0
 40
1.0
 40
1.0
 10
-4.844000387348283
 20
4.145670153260006
 30
0.0
 10
-4.809712007440588
 20
4.108903407705932
 30
0.0
 10
-4.743305583922401
 20
4.037697124900446
 30
0.0
 10
-4.64881608679976
 20
3.933123123180091
 30
0.0
 10
-4.563311438638266
 20
3.833884891696412
 30
0.0
 10
-4.488564647857756
 20
3.738925743481559
 30
0.0
 10
-4.420653099102493
 20
3.651325766869268
 30
0.0
 10
-4.362604962998586
 20
3.568444589245418
 30
0.0
 10
-4.313889144546316
 20
3.491031486309465
 30
0.0
 10
-4.261001214155574
 20
3.397684804250451
 30
0.0
 10
-4.210775065761033
 20
3.286352274932107
 30
0.0
 10
-4.164689534765914
 20
3.158092636194421
 30
0.0
 10
-4.136597214427128
 20
3.03550596050556
 30
0.0
 10
-4.132719585816421
 20
2.95562584755107
 30
0.0
 10
-4.130859361707257
 20
2.917304768644621
 30
0.0
  0
SPLINE
  5
D4
330
1B
100
AcDbEntity
 67
     1
  8
0
  6
Continuous
 62
     7
370
    15
100
AcDbSpline
210
0.0
220
0.0
230
1.0
 70
     8
 71
     3
 72
    19
 73
    15
 74
     0
 42
0.00000001
 43
0.00000001
 12
1.0
 22
0.0
 32
0.0
 13
1.0
 23
0.0
 33
0.0
 40
0.0
 40
0.0
 40
0.0
 40
0.0
 40
0.0773463525873213
 40
0.1506523054421706
 40
0.2206774854153157
 40
0.2865751871342063
 40
0.3501884696535646
 40
0.4113788387158256
 40
0.469946038552607
 40
0.5282337864665747
 40
0.642194431665235
 40
0.7553643229127679
 40
0.8735561215980469
 40
1.0
 40
1.0
 40
1.0
 40
1.0
 10
-0.6436798745277692
 20
-2.97372087238102
 30
0.0
 10
-0.639130308368288
 20
-2.948563965334831
 30
0.0
 10
-0.6302688351667722
 20
-2.899564291561926
 30
0.0
 10
-0.612985075151033
 20
-2.828623656712917
 30
0.0
 10
-0.5904619245524441
 20
-2.763141069120022
 30
0.0
 10
-0.5644195586441568
 20
-2.702534521449137
 30
0.0
 10
-0.5362898827853744
 20
-2.646008270832092
 30
0.0
 10
-0.5023025076181964
 20
-2.595649971253707
 30
0.0
 10
-0.4649478494147928
 20
-2.550092188477535
 30
0.0
 10
-0.4110448052818486
 20
-2.495932594258838
 30
0.0
 10
-0.3339866910445132
 20
-2.440285872206955
 30
0.0
 10
-0.2299327078331459
 20
-2.391926223474148
 30
0.0
 10
-0.1141825053066043
 20
-2.363581527920368
 30
0.0
 10
-0.0332615698273735
 20
-2.360123562141848
 30
0.0
 10
0.0085637152158202
 20
-2.358336256996405
 30
0.0
  0
SPLINE
  5
D5
330
1B
100
AcDbEntity
 67
     1
  8
0
  6
Continuous
 62
     7
370
    15
100
AcDbSpline
210
0.0
220
0.0
230
1.0
 70
     8
 71
     3
 72
    15
 73
    11
 74
     0
 42
0.00000001
 43
0.00000001
 12
1.0
 22
0.0
 32
0.0
 13
1.0
 23
0.0
 33
0.0
 40
0.0
 40
0.0
 40
0.0
 40
0.0
 40
0.1389342360692883
 40
0.2723713666678131
 40
0.4007019795223959
 40
0.5249153332245823
 40
0.6467750113322143
 40
0.7657064925031577
 40
0.8831152256608794
 40
1.0
 40
1.0
 40
1.0
 40
1.0
 10
-1.156500387348283
 20
-4.768592667252815
 30
0.0
 10
-1.151431396360654
 20
-4.804480362413035
 30
0.0
 10
-1.141493975304559
 20
-4.874835811536979
 30
0.0
 10
-1.117715055702309
 20
-4.976692975362637
 30
0.0
 10
-1.089272901865727
 20
-5.073311466125648
 30
0.0
 10
-1.053764325910642
 20
-5.164385312778613
 30
0.0
 10
-1.012118543141516
 20
-5.250076747951852
 30
0.0
 10
-0.9647590445457147
 20
-5.330679822927218
 30
0.0
 10
-0.9111738561899607
 20
-5.405848574086458
 30
0.0
 10
-0.870100241744861
 20
-5.451130528158814
 30
0.0
 10
-0.8496093617072555
 20
-5.47372087238102
 30
0.0
  0
SPLINE
  5
D6
330
1B
100
AcDbEntity
 67
     1
  8
0
  6
Continuous
 62
     7
370
    15
100
AcDbSpline
210
0.0
220
0.0
230
1.0
 70
     8
 71
     3
 72
    23
 73
    19
 74
     0
 42
0.00000001
 43
0.00000001
 12
1.0
 22
0.0
 32
0.0
 13
1.0
 23
0.0
 33
0.0
 40
0.0
 40
0.0
 40
0.0
 40
0.0
 40
0.072890606580651
 40
0.1418833354390764
 40
0.209282135423918
 40
0.2746226384553191
 40
0.3384391539790459
 40
0.4013048615705237
 40
0.4650061847340458
 40
0.5283200864625126
 40
0.5907402649620382
 40
0.6509809274188442
 40
0.7096903202894506
 40
0.7672117550042974
 40
0.8241879505444224
 40
0.8817668141839331
 40
0.939954726381298
 40
0.9999999999999999
 40
0.9999999999999999
 40
0.9999999999999999
 40
0.9999999999999999
 10
5.151191920344026
 20
-3.007374718534866
 30
0.0
 10
5.150744058027883
 20
-3.030095307946659
 30
0.0
 10
5.149872283155744
 20
-3.074321486875765
 30
0.0
 10
5.142660787421677
 20
-3.139261359175026
 30
0.0
 10
5.12975956041711
 20
-3.200877545370957
 30
0.0
 10
5.112181527866133
 20
-3.259641979544904
 30
0.0
 10
5.08967954778272
 20
-3.315197815546413
 30
0.0
 10
5.062180623804365
 20
-3.367875748629808
 30
0.0
 10
5.029567277951557
 20
-3.417409510850582
 30
0.0
 10
4.991664415940082
 20
-3.462790643746608
 30
0.0
 10
4.951245193890537
 20
-3.504415509290173
 30
0.0
 10
4.907821961596997
 20
-3.540820285125411
 30
0.0
 10
4.861785939257814
 20
-3.571033721312982
 30
0.0
 10
4.814567639544307
 20
-3.597410930236972
 30
0.0
 10
4.764282277957164
 20
-3.616607687944255
 30
0.0
 10
4.712060570258934
 20
-3.629827786756296
 30
0.0
 10
4.657957434441772
 20
-3.639528163395429
 30
0.0
 10
4.621054859584454
 20
-3.640098096081079
 30
0.0
 10
4.60231371521582
 20
-3.640387539047687
 30
0.0
  0
SPLINE
  5
D7
330
1B
100
AcDbEntity
 67
     1
  8
0
  6
Continuous
 62
     7
370
    15
100
AcDbSpline
210
0.0
220
0.0
230
1.0
 70
     8
 71
     3
 72
    23
 73
    19
 74
     0
 42
0.00000001
 43
0.00000001
 12
1.0
 22
0.0
 32
0.0
 13
1.0
 23
0.0
 33
0.0
 40
0.0
 40
0.0
 40
0.0
 40
0.0
 40
0.0628211608051001
 40
0.1238705348889599
 40
0.1835541689801074
 40
0.2422662914882137
 40
0.3012648873502027
 40
0.3608466874955852
 40
0.421948699939763
 40
0.4847891908580599
 40
0.5480139130193514
 40
0.610412876152207
 40
0.6725364471512223
 40
0.7348288403150822
 40
0.7979472548457985
 40
0.86297349100396
 40
0.9300195846043574
 40
1.0
 40
1.0
 40
1.0
 40
1.0
 10
1.356320125472231
 20
-2.935259333919481
 30
0.0
 10
1.354947098750733
 20
-2.890876536848668
 30
0.0
 10
1.352239769687897
 20
-2.803362700068632
 30
0.0
 10
1.335027838560386
 20
-2.674463774431962
 30
0.0
 10
1.30298232409581
 20
-2.551570100904445
 30
0.0
 10
1.260824674684666
 20
-2.433267602404748
 30
0.0
 10
1.20459094582312
 20
-2.321083521005877
 30
0.0
 10
1.138413300860401
 20
-2.212443385191266
 30
0.0
 10
1.057067678572408
 20
-2.111114804915067
 30
0.0
 10
0.9666659870539602
 20
-2.014418915050744
 30
0.0
 10
0.8662696382945618
 20
-1.926507341742048
 30
0.0
 10
0.7574236633144459
 20
-1.850291963624619
 30
0.0
 10
0.6425214919164451
 20
-1.784885608791575
 30
0.0
 10
0.5208361705209074
 20
-1.731786866482542
 30
0.0
 10
0.3924099753927022
 20
-1.69089476191714
 30
0.0
 10
0.257529157283707
 20
-1.661336063824539
 30
0.0
 10
0.1156269839164535
 20
-1.64325156328988
 30
0.0
 10
0.0187676482257093
 20
-1.641355746303366
 30
0.0
 10
-0.0306991052969989
 20
-1.640387539047687
 30
0.0
  0
SPLINE
  5
D8
330
1B
100
AcDbEntity
 67
     1
  8
0
  6
Continuous
 62
     7
370
    15
100
AcDbSpline
210
0.0
220
0.0
230
1.0
 70
     8
 71
     3
 72
    15
 73
    11
 74
     0
 42
0.00000001
 43
0.00000001
 12
1.0
 22
0.0
 32
0.0
 13
1.0
 23
0.0
 33
0.0
 40
0.0
 40
0.0
 40
0.0
 40
0.0
 40
0.1381137870618401
 40
0.2684083835837759
 40
0.3941909055405366
 40
0.5170923452347733
 40
0.6374931640526666
 40
0.7570041724766237
 40
0.8772941249553332
 40
1.0
 40
1.0
 40
1.0
 40
1.0
 10
4.022986792138896
 20
-2.717310615970764
 30
0.0
 10
4.037985786303878
 20
-2.689067837264183
 30
0.0
 10
4.067134619775533
 20
-2.63418121991907
 30
0.0
 10
4.122582145275812
 20
-2.561310988334153
 30
0.0
 10
4.184652129792664
 20
-2.499170385336972
 30
0.0
 10
4.252784668421486
 20
-2.447152284009697
 30
0.0
 10
4.327421217628713
 20
-2.408181207734881
 30
0.0
 10
4.405520478971924
 20
-2.378627346318783
 30
0.0
 10
4.488063580490763
 20
-2.36154926444927
 30
0.0
 10
4.544279077077092
 20
-2.359414334807529
 30
0.0
 10
4.572666279318384
 20
-2.358336256996405
 30
0.0
  0
SPLINE
  5
D9
330
1B
100
AcDbEntity
 67
     1
  8
0
  6
Continuous
 62
     7
370
    15
100
AcDbSpline
210
0.0
220
0.0
230
1.0
 70
     8
 71
     3
 72
    15
 73
    11
 74
     0
 42
0.00000001
 43
0.00000001
 12
1.0
 22
0.0
 32
0.0
 13
1.0
 23
0.0
 33
0.0
 40
0.0
 40
0.0
 40
0.0
 40
0.0
 40
0.1262080809789266
 40
0.2463314545173052
 40
0.3634838183347869
 40
0.4847544616601205
 40
0.6083827567272829
 40
0.7312142544154174
 40
0.8609892746833466
 40
0.9999999999999999
 40
0.9999999999999999
 40
0.9999999999999999
 40
0.9999999999999999
 10
0.4332432023953087
 20
-4.75096446212461
 30
0.0
 10
0.4318521766780223
 20
-4.777006339103554
 30
0.0
 10
0.4291371889723831
 20
-4.827834569632273
 30
0.0
 10
0.4080511236155652
 20
-4.900580474967288
 30
0.0
 10
0.3714481032868883
 20
-4.965427420104654
 30
0.0
 10
0.3223698801747514
 20
-5.022238948905875
 30
0.0
 10
0.2625663589157506
 20
-5.069692195571179
 30
0.0
 10
0.1924661483442298
 20
-5.10414244359327
 30
0.0
 10
0.1135904270865841
 20
-5.124383502570124
 30
0.0
 10
0.058097107162909
 20
-5.126481818374218
 30
0.0
 10
0.0293970485491547
 20
-5.127567026227173
 30
0.0
  0
SPLINE
  5
DA
330
1B
100
AcDbEntity
 67
     1
  8
0
  6
Continuous
 62
     7
370
    15
100
AcDbSpline
210
0.0
220
0.0
230
1.0
 70
     8
 71
     3
 72
    23
 73
    19
 74
     0
 42
0.00000001
 43
0.00000001
 12
1.0
 22
0.0
 32
0.0
 13
1.0
 23
0.0
 33
0.0
 40
0.0
 40
0.0
 40
0.0
 40
0.0
 40
0.0662214729650467
 40
0.1301222241928447
 40
0.1929218896442583
 40
0.2547641743082547
 40
0.3157567810544737
 40
0.3763028430934014
 40
0.4368144190490083
 40
0.4981681590965032
 40
0.5595162284808273
 40
0.6202430211536017
 40
0.6809698138263762
 40
0.7423490653749127
 40
0.8045838965925346
 40
0.8681023975450436
 40
0.9333073801795225
 40
1.0
 40
1.0
 40
1.0
 40
1.0
 10
0.615935510087616
 20
-3.958496513406661
 30
0.0
 10
0.6444472600624725
 20
-3.949135505573212
 30
0.0
 10
0.7004715699463198
 20
-3.930741545042945
 30
0.0
 10
0.7801033901165553
 20
-3.894514847889339
 30
0.0
 10
0.8558241517885753
 20
-3.854925072704416
 30
0.0
 10
0.9263299707147343
 20
-3.80893219008523
 30
0.0
 10
0.9923221123610514
 20
-3.758395948398924
 30
0.0
 10
1.053398280811905
 20
-3.702884345637868
 30
0.0
 10
1.109923392025509
 20
-3.64251842292283
 30
0.0
 10
1.160974696581766
 20
-3.57696619059308
 30
0.0
 10
1.20628472402548
 20
-3.507276028970258
 30
0.0
 10
1.246938998996961
 20
-3.435057739511989
 30
0.0
 10
1.280399733453473
 20
-3.359216118961443
 30
0.0
 10
1.308745141245372
 20
-3.280617329675799
 30
0.0
 10
1.330325720942447
 20
-3.198554967020085
 30
0.0
 10
1.345520377455871
 20
-3.113347016008885
 30
0.0
 10
1.354303261860805
 20
-3.025187841561538
 30
0.0
 10
1.355642801500661
 20
-2.965460054289673
 30
0.0
 10
1.356320125472231
 20
-2.935259333919481
 30
0.0
  0
SPLINE
  5
DB
330
1B
100
AcDbEntity
 67
     1
  8
0
  6
Continuous
 62
     7
370
    15
100
AcDbSpline
210
0.0
220
0.0
230
1.0
 70
     8
 71
     3
 72
    23
 73
    19
 74
     0
 42
0.00000001
 43
0.00000001
 12
1.0
 22
0.0
 32
0.0
 13
1.0
 23
0.0
 33
0.0
 40
0.0
 40
0.0
 40
0.0
 40
0.0
 40
0.0455177516513179
 40
0.091615990618165
 40
0.1392465550335721
 40
0.1882415637234042
 40
0.238673079372537
 40
0.2906638743206421
 40
0.3448398555786325
 40
0.4004316067351771
 40
0.4591437176132942
 40
0.5225510475946141
 40
0.5901008583230445
 40
0.6622596565248672
 40
0.7396813070012562
 40
0.8215754713854219
 40
0.9083300466844454
 40
1.0
 40
1.0
 40
1.0
 40
1.0
 10
-3.412910643758538
 20
2.866823999413853
 30
0.0
 10
-3.413581727234667
 20
2.897294790224703
 30
0.0
 10
-3.414932452506075
 20
2.958624965459184
 30
0.0
 10
-3.424324224803858
 20
3.051432573142677
 30
0.0
 10
-3.438413739067505
 20
3.145967972138557
 30
0.0
 10
-3.45965729294503
 20
3.242150107152899
 30
0.0
 10
-3.486149746212538
 20
3.340005939553653
 30
0.0
 10
-3.518288921231518
 20
3.439828318213044
 30
0.0
 10
-3.556820317784727
 20
3.541051286842829
 30
0.0
 10
-3.601100925090909
 20
3.644814092643087
 30
0.0
 10
-3.653927801831975
 20
3.751453612801553
 30
0.0
 10
-3.715437356842698
 20
3.862568415258009
 30
0.0
 10
-3.787262193096781
 20
3.978059932430626
 30
0.0
 10
-3.868534757162593
 20
4.09858026703608
 30
0.0
 10
-3.959649770376098
 20
4.223939339841869
 30
0.0
 10
-4.061052026159005
 20
4.353759530199866
 30
0.0
 10
-4.171573608647314
 20
4.488498283038092
 30
0.0
 10
-4.250013884863252
 20
4.578563577976769
 30
0.0
 10
-4.290314489912385
 20
4.624836819926673
 30
0.0
  0
SPLINE
  5
DC
330
1B
100
AcDbEntity
 67
     1
  8
0
  6
Continuous
 62
     7
370
    15
100
AcDbSpline
210
0.0
220
0.0
230
1.0
 70
     8
 71
     3
 72
    23
 73
    19
 74
     0
 42
0.00000001
 43
0.00000001
 12
1.0
 22
0.0
 32
0.0
 13
1.0
 23
0.0
 33
0.0
 40
0.0
 40
0.0
 40
0.0
 40
0.0
 40
0.0506134204127166
 40
0.1007597227549727
 40
0.1492748125078582
 40
0.198888437958827
 40
0.2493064970530075
 40
0.302322685942376
 40
0.3572206482518698
 40
0.4154373215830228
 40
0.4764429313671187
 40
0.5398286479827854
 40
0.6061838488371138
 40
0.6759412007935897
 40
0.7497824080738356
 40
0.8282876884211443
 40
0.9118449242474477
 40
1.0
 40
1.0
 40
1.0
 40
1.0
 10
0.6383714075235136
 20
-2.94247087238102
 30
0.0
 10
0.6376108682113233
 20
-2.964427680546168
 30
0.0
 10
0.6360968087066367
 20
-3.00813865453813
 30
0.0
 10
0.623726784093595
 20
-3.071925629914633
 30
0.0
 10
0.6041919007043419
 20
-3.133283559270713
 30
0.0
 10
0.5770555615411186
 20
-3.191940720862885
 30
0.0
 10
0.5408180048943649
 20
-3.247680916041883
 30
0.0
 10
0.4980580923373403
 20
-3.301622461865564
 30
0.0
 10
0.4454070497625315
 20
-3.350957797158519
 30
0.0
 10
0.3876418049572587
 20
-3.399724280930299
 30
0.0
 10
0.3206568140183838
 20
-3.442233946831683
 30
0.0
 10
0.2477143399881454
 20
-3.481464122514971
 30
0.0
 10
0.1668973415762227
 20
-3.512679230887827
 30
0.0
 10
0.0801786337609481
 20
-3.540560104484657
 30
0.0
 10
-0.0140821488226189
 20
-3.560923861473016
 30
0.0
 10
-0.1152996816265609
 20
-3.575709933850349
 30
0.0
 10
-0.2233106859813993
 20
-3.586715873159584
 30
0.0
 10
-0.297764074964265
 20
-3.588294856394078
 30
0.0
 10
-0.3359875668354617
 20
-3.589105487765636
 30
0.0
  0
SPLINE
  5
DD
330
1B
100
AcDbEntity
 67
     1
  8
0
  6
Continuous
 62
     7
370
    15
100
AcDbSpline
210
0.0
220
0.0
230
1.0
 70
     8
 71
     3
 72
    23
 73
    19
 74
     0
 42
0.00000001
 43
0.00000001
 12
1.0
 22
0.0
 32
0.0
 13
1.0
 23
0.0
 33
0.0
 40
0.0
 40
0.0
 40
0.0
 40
0.0
 40
0.0682139106966423
 40
0.1340948027129802
 40
0.1982856151357158
 40
0.2611601861891398
 40
0.323634654289894
 40
0.3863667501562177
 40
0.4496423858959023
 40
0.5142449020307922
 40
0.5784133384205226
 40
0.640374686037372
 40
0.7006148497351883
 40
0.7601039771708685
 40
0.8192989800104287
 40
0.878465983635412
 40
0.9383604016893768
 40
1.0
 40
1.0
 40
1.0
 40
1.0
 10
0.0342047408568458
 20
-5.845515744175892
 30
0.0
 10
0.0729731571409392
 20
-5.844600497834503
 30
0.0
 10
0.1491840513708471
 20
-5.842801307957705
 30
0.0
 10
0.2611948898678597
 20
-5.828358387985827
 30
0.0
 10
0.3679878505432614
 20
-5.803027114657342
 30
0.0
 10
0.4706917662235577
 20
-5.769907043241712
 30
0.0
 10
0.5677961968674707
 20
-5.724841650801613
 30
0.0
 10
0.6614443314669397
 20
-5.672530322019491
 30
0.0
 10
0.7490196379036815
 20
-5.608368303415681
 30
0.0
 10
0.8307270256773059
 20
-5.535871679429111
 30
0.0
 10
0.9057908448731422
 20
-5.457459483657543
 30
0.0
 10
0.9707964412318495
 20
-5.3736432949001
 30
0.0
 10
1.02668291886524
 20
-5.286662036711118
 30
0.0
 10
1.072725984388063
 20
-5.195793059476806
 30
0.0
 10
1.108126844835671
 20
-5.10088260184055
 30
0.0
 10
1.13269609190516
 20
-5.002478948664611
 30
0.0
 10
1.148777260642593
 20
-4.900799235107106
 30
0.0
 10
1.150379365248047
 20
-4.831688903382229
 30
0.0
 10
1.151191920344026
 20
-4.796637539047687
 30
0.0
  0
SPLINE
  5
DE
330
1B
100
AcDbEntity
 67
     1
  8
0
  6
Continuous
 62
     7
370
    15
100
AcDbSpline
210
0.0
220
0.0
230
1.0
 70
     8
 71
     3
 72
    23
 73
    19
 74
     0
 42
0.00000001
 43
0.00000001
 12
1.0
 22
0.0
 32
0.0
 13
1.0
 23
0.0
 33
0.0
 40
0.0
 40
0.0
 40
0.0
 40
0.0
 40
0.0694022227332774
 40
0.1359434277415499
 40
0.2010203772821992
 40
0.2641806354860682
 40
0.325954798226697
 40
0.388453790625265
 40
0.4508185688551894
 40
0.5142656197867413
 40
0.5774921763904639
 40
0.6388352985771117
 40
0.698633644704398
 40
0.7580571493169924
 40
0.8170324353081861
 40
0.8764147980799065
 40
0.937277955527714
 40
1.0
 40
1.0
 40
1.0
 40
1.0
 10
0.0085637152158202
 20
-2.358336256996405
 30
0.0
 10
0.0307576898606466
 20
-2.358716846793287
 30
0.0
 10
0.074230720976984
 20
-2.359462337060227
 30
0.0
 10
0.1380861304028732
 20
-2.367725098524267
 30
0.0
 10
0.1989173988073414
 20
-2.381333872911905
 30
0.0
 10
0.2568378277328444
 20
-2.399827692911888
 30
0.0
 10
0.3122161419110204
 20
-2.423010852557176
 30
0.0
 10
0.3639942833394852
 20
-2.452904149628472
 30
0.0
 10
0.4132276199843924
 20
-2.487659374885793
 30
0.0
 10
0.459380940659979
 20
-2.526733474547613
 30
0.0
 10
0.5020275600586521
 20
-2.569310255815151
 30
0.0
 10
0.5375120554314966
 20
-2.616456807478334
 30
0.0
 10
0.5699423165538674
 20
-2.664366130604324
 30
0.0
 10
0.5939279713667097
 20
-2.716172621929592
 30
0.0
 10
0.614944572328679
 20
-2.769088538774559
 30
0.0
 10
0.6278078057405454
 20
-2.825034563004967
 30
0.0
 10
0.6375204707102117
 20
-2.882837097567337
 30
0.0
 10
0.6380849318352056
 20
-2.922394614756361
 30
0.0
 10
0.6383714075235136
 20
-2.94247087238102
 30
0.0
  0
SPLINE
  5
DF
330
1B
100
AcDbEntity
 67
     1
  8
0
  6
Continuous
 62
     7
370
    15
100
AcDbSpline
210
0.0
220
0.0
230
1.0
 70
     8
 71
     3
 72
    15
 73
    11
 74
     0
 42
0.00000001
 43
0.00000001
 12
1.0
 22
0.0
 32
0.0
 13
1.0
 23
0.0
 33
0.0
 40
0.0
 40
0.0
 40
0.0
 40
0.0
 40
0.1241007034540102
 40
0.244316130374512
 40
0.3644659408319809
 40
0.4858539930671604
 40
0.6089147941772748
 40
0.7343009187589538
 40
0.8639428169458323
 40
1.0
 40
1.0
 40
1.0
 40
1.0
 10
1.151191920344026
 20
-4.796637539047688
 30
0.0
 10
1.149524508735551
 20
-4.753229343035937
 30
0.0
 10
1.146241887923696
 20
-4.667771950926476
 30
0.0
 10
1.119305607487393
 20
-4.542698708241934
 30
0.0
 10
1.077143003911948
 20
-4.423106368015967
 30
0.0
 10
1.016235022106522
 20
-4.310668207027502
 30
0.0
 10
0.9400845318169999
 20
-4.205690218668408
 30
0.0
 10
0.8466504306450827
 20
-4.111682132301644
 30
0.0
 10
0.7385939643200296
 20
-4.027170028580999
 30
0.0
 10
0.6574745357202764
 20
-3.981753213688458
 30
0.0
 10
0.615935510087616
 20
-3.958496513406661
 30
0.0
  0
SPLINE
  5
E0
330
1B
100
AcDbEntity
 67
     1
  8
0
  6
Continuous
 62
     7
370
    15
100
AcDbSpline
210
0.0
220
0.0
230
1.0
 70
     8
 71
     3
 72
    23
 73
    19
 74
     0
 42
0.00000001
 43
0.00000001
 12
1.0
 22
0.0
 32
0.0
 13
1.0
 23
0.0
 33
0.0
 40
0.0
 40
0.0
 40
0.0
 40
0.0
 40
0.0564668684718627
 40
0.1111640986969633
 40
0.1649370968759852
 40
0.218321752312594
 40
0.2723929232482766
 40
0.3279763434477037
 40
0.3852910519840207
 40
0.4449029182928189
 40
0.5068438192198357
 40
0.5694881852629684
 40
0.6341532155537228
 40
0.7009760953100499
 40
0.7708974968462685
 40
0.84362561055578
 40
0.91965967611554
 40
1.0
 40
1.0
 40
1.0
 40
1.0
 10
-4.654096541194437
 20
2.385253486593339
 30
0.0
 10
-4.673090137733226
 20
2.385925280655639
 30
0.0
 10
-4.710482082733692
 20
2.387247815151823
 30
0.0
 10
-4.765445319231687
 20
2.396051569463723
 30
0.0
 10
-4.817746787570968
 20
2.411567267489776
 30
0.0
 10
-4.867968632198153
 20
2.43235611901971
 30
0.0
 10
-4.915574872370918
 20
2.459911890977255
 30
0.0
 10
-4.960445430069479
 20
2.493878770094831
 30
0.0
 10
-5.003053073316429
 20
2.533393580802841
 30
0.0
 10
-5.043202386366096
 20
2.578332765532725
 30
0.0
 10
-5.079743502547239
 20
2.628484908880417
 30
0.0
 10
-5.112199188323758
 20
2.683391973576663
 30
0.0
 10
-5.139034637404055
 20
2.743019877175488
 30
0.0
 10
-5.162661542126582
 20
2.80658144027272
 30
0.0
 10
-5.180883741620709
 20
2.874759365870303
 30
0.0
 10
-5.194151763389713
 20
2.94714561669598
 30
0.0
 10
-5.204238554300624
 20
3.023622429790098
 30
0.0
 10
-5.206579654017353
 20
3.076193047450299
 30
0.0
 10
-5.207782438630334
 20
3.103202204542057
 30
0.0
  0
SPLINE
  5
E1
330
1B
100
AcDbEntity
 67
     1
  8
0
  6
Continuous
 62
     7
370
    15
100
AcDbSpline
210
0.0
220
0.0
230
1.0
 70
     8
 71
     3
 72
    23
 73
    19
 74
     0
 42
0.00000001
 43
0.00000001
 12
1.0
 22
0.0
 32
0.0
 13
1.0
 23
0.0
 33
0.0
 40
0.0
 40
0.0
 40
0.0
 40
0.0
 40
0.061179343088048
 40
0.1203713884446014
 40
0.178441731362264
 40
0.2359341281810938
 40
0.2942679362243753
 40
0.3526542946283809
 40
0.4131221280938571
 40
0.4755857683820434
 40
0.5389001041802268
 40
0.6018690472303229
 40
0.6643326875185088
 40
0.7276470233166935
 40
0.7924087308653701
 40
0.8591195288732137
 40
0.9281350966840262
 40
1.0
 40
1.0
 40
1.0
 40
1.0
 10
4.572666279318384
 20
-2.358336256996405
 30
0.0
 10
4.592451778434134
 20
-2.359080679092636
 30
0.0
 10
4.631380081345214
 20
-2.360545342111055
 30
0.0
 10
4.688734779903173
 20
-2.368293777098904
 30
0.0
 10
4.743482359557979
 20
-2.382969137253579
 30
0.0
 10
4.796029855312709
 20
-2.403291099488029
 30
0.0
 10
4.846518423265588
 20
-2.428634881804663
 30
0.0
 10
4.894224292127019
 20
-2.460629755601571
 30
0.0
 10
4.939977458190913
 20
-2.497457041695533
 30
0.0
 10
4.983081372770947
 20
-2.539716477129387
 30
0.0
 10
5.022121095158224
 20
-2.586825917778127
 30
0.0
 10
5.056354661208032
 20
-2.637448223414033
 30
0.0
 10
5.086964190341734
 20
-2.690458555140219
 30
0.0
 10
5.10963713654558
 20
-2.747956785428181
 30
0.0
 10
5.128204362157167
 20
-2.808225996719814
 30
0.0
 10
5.141878018232156
 20
-2.871720818229744
 30
0.0
 10
5.150049569786052
 20
-2.938515406628308
 30
0.0
 10
5.15080603692533
 20
-2.984114199684428
 30
0.0
 10
5.151191920344026
 20
-3.007374718534866
 30
0.0
  0
SPLINE
  5
E2
330
1B
100
AcDbEntity
 67
     1
  8
0
  6
Continuous
 62
     7
370
    15
100
AcDbSpline
210
0.0
220
0.0
230
1.0
 70
     8
 71
     3
 72
    19
 73
    15
 74
     0
 42
0.00000001
 43
0.00000001
 12
1.0
 22
0.0
 32
0.0
 13
1.0
 23
0.0
 33
0.0
 40
0.0
 40
0.0
 40
0.0
 40
0.0
 40
0.0896145288821155
 40
0.1749485612865263
 40
0.2575481258745666
 40
0.3389007874900939
 40
0.4200531858831907
 40
0.5014014271193621
 40
0.5842520267159583
 40
0.6703704767286309
 40
0.7564732666582517
 40
0.8392065940498485
 40
0.9201204666578203
 40
1.0
 40
1.0
 40
1.0
 40
1.0
 10
-4.613231156579052
 20
1.667304768644621
 30
0.0
 10
-4.556749477111203
 20
1.669067145942443
 30
0.0
 10
-4.446484002469858
 20
1.672507719435871
 30
0.0
 10
-4.286259521630265
 20
1.701856953194311
 30
0.0
 10
-4.13662737492846
 20
1.750948082009398
 30
0.0
 10
-3.997696330878739
 20
1.819541335471312
 30
0.0
 10
-3.87064913389015
 20
1.906681873735182
 30
0.0
 10
-3.755506851841832
 20
2.010582704064287
 30
0.0
 10
-3.65575157093892
 20
2.133423720370535
 30
0.0
 10
-3.570750813394683
 20
2.270093708408829
 30
0.0
 10
-3.500125342790241
 20
2.414807991076573
 30
0.0
 10
-3.450633954880756
 20
2.564448560402165
 30
0.0
 10
-3.418103798267004
 20
2.715044562426817
 30
0.0
 10
-3.414634255727254
 20
2.816448287740108
 30
0.0
 10
-3.412910643758538
 20
2.866823999413852
 30
0.0
  0
SPLINE
  5
E3
330
1B
100
AcDbEntity
 67
     1
  8
0
  6
Continuous
 62
     7
370
    15
100
AcDbSpline
210
0.0
220
0.0
230
1.0
 70
     8
 71
     3
 72
    23
 73
    19
 74
     0
 42
0.00000001
 43
0.00000001
 12
1.0
 22
0.0
 32
0.0
 13
1.0
 23
0.0
 33
0.0
 40
0.0
 40
0.0
 40
0.0
 40
0.0
 40
0.066659045305934
 40
0.1303429423273799
 40
0.1919362235456417
 40
0.2519958016206855
 40
0.3111219432316449
 40
0.3697547996986376
 40
0.4286022079335127
 40
0.4884358451551544
 40
0.5485243594721672
 40
0.6086610699182972
 40
0.6692357986109766
 40
0.7308807993874666
 40
0.7941962717216977
 40
0.8598304060149957
 40
0.9285334661023543
 40
1.0
 40
1.0
 40
1.0
 40
1.0
 10
-0.0306991052969989
 20
-1.640387539047687
 30
0.0
 10
-0.0774938562936908
 20
-1.641408349905855
 30
0.0
 10
-0.1689947996749329
 20
-1.643404410458519
 30
0.0
 10
-0.3028340795767848
 20
-1.660681326121586
 30
0.0
 10
-0.4300356463211822
 20
-1.688550393097866
 30
0.0
 10
-0.5509241202234332
 20
-1.727834153981719
 30
0.0
 10
-0.6650317940639245
 20
-1.778778478463724
 30
0.0
 10
-0.773393440010498
 20
-1.839441738217976
 30
0.0
 10
-0.8738467254884454
 20
-1.913322848927968
 30
0.0
 10
-0.9675108980104425
 20
-1.997086677717152
 30
0.0
 10
-1.052308203453884
 20
-2.091064937506627
 30
0.0
 10
-1.12809702522849
 20
-2.193080668671147
 30
0.0
 10
-1.193206206519126
 20
-2.303521795225767
 30
0.0
 10
-1.247902760916817
 20
-2.421916466516933
 30
0.0
 10
-1.291759085066321
 20
-2.548472382472105
 30
0.0
 10
-1.326352824825762
 20
-2.682932185212669
 30
0.0
 10
-1.350517118217048
 20
-2.825558567587006
 30
0.0
 10
-1.357876404417862
 20
-2.923688552834019
 30
0.0
 10
-1.361628592476488
 20
-2.97372087238102
 30
0.0
  0
SPLINE
  5
E4
330
1B
100
AcDbEntity
 67
     1
  8
0
  6
Continuous
 62
     7
370
    15
100
AcDbSpline
210
0.0
220
0.0
230
1.0
 70
     8
 71
     3
 72
    23
 73
    19
 74
     0
 42
0.00000001
 43
0.00000001
 12
1.0
 22
0.0
 32
0.0
 13
1.0
 23
0.0
 33
0.0
 40
0.0
 40
0.0
 40
0.0
 40
0.0
 40
0.0749399102007727
 40
0.1464280851715762
 40
0.2147529716359185
 40
0.280421536691247
 40
0.3436044295193644
 40
0.4055426388186582
 40
0.466199461930776
 40
0.5265381448244667
 40
0.5859019063092086
 40
0.6440895746157922
 40
0.7016130759883658
 40
0.7587535874365707
 40
0.816629449389766
 40
0.8756554749553046
 40
0.9366243322865291
 40
1.0
 40
1.0
 40
1.0
 40
1.0
 10
-5.925731156579052
 20
3.103202204542057
 30
0.0
 10
-5.922630446174738
 20
3.048893182287916
 30
0.0
 10
-5.916571844210058
 20
2.942776613494211
 30
0.0
 10
-5.89247225690379
 20
2.788638899484524
 30
0.0
 10
-5.860179636981218
 20
2.642995709402419
 30
0.0
 10
-5.817080848795646
 20
2.506356518995745
 30
0.0
 10
-5.762924401420773
 20
2.378770978554542
 30
0.0
 10
-5.699103879786816
 20
2.259804142021489
 30
0.0
 10
-5.623988814552801
 20
2.15008237242697
 30
0.0
 10
-5.539177901347538
 20
2.050134810081965
 30
0.0
 10
-5.446110996169334
 20
1.960470929597814
 30
0.0
 10
-5.346720259353542
 20
1.880969300226034
 30
0.0
 10
-5.239485375636978
 20
1.815366556458197
 30
0.0
 10
-5.126365614069726
 20
1.761381571947058
 30
0.0
 10
-5.007380236613241
 20
1.718250077900048
 30
0.0
 10
-4.881403454709163
 20
1.689413183769258
 30
0.0
 10
-4.749526043554448
 20
1.66988455657119
 30
0.0
 10
-4.659245276536438
 20
1.668175723335234
 30
0.0
 10
-4.613231156579052
 20
1.667304768644621
 30
0.0
  0
SPLINE
  5
E5
330
1B
100
AcDbEntity
 67
     1
  8
0
  6
Continuous
 62
     7
370
    15
100
AcDbSpline
210
0.0
220
0.0
230
1.0
 70
     8
 71
     3
 72
    23
 73
    19
 74
     0
 42
0.00000001
 43
0.00000001
 12
1.0
 22
0.0
 32
0.0
 13
1.0
 23
0.0
 33
0.0
 40
0.0
 40
0.0
 40
0.0
 40
0.0
 40
0.0634005294004286
 40
0.124976409933141
 40
0.1844921876584945
 40
0.2434736282965419
 40
0.3022637321141439
 40
0.3613835718304155
 40
0.4214817654110645
 40
0.4834545367577928
 40
0.5459360688045385
 40
0.6081426980855852
 40
0.66982029209495
 40
0.7323322942692656
 40
0.79609223432141
 40
0.861642666879232
 40
0.9294352318828827
 40
1.0
 40
1.0
 40
1.0
 40
1.0
 10
4.656800894703002
 20
-4.358336256996405
 30
0.0
 10
4.699333852258121
 20
-4.35736163892939
 30
0.0
 10
4.78317568117259
 20
-4.355440452020963
 30
0.0
 10
4.905825637630305
 20
-4.337202121596271
 30
0.0
 10
5.023270216592356
 20
-4.308477303879442
 30
0.0
 10
5.135150024389125
 20
-4.267509787340235
 30
0.0
 10
5.241355769466009
 20
-4.214189506438303
 30
0.0
 10
5.342016194346962
 20
-4.149686913338418
 30
0.0
 10
5.437254842442648
 20
-4.073888717999475
 30
0.0
 10
5.525379874724808
 20
-3.98674746440935
 30
0.0
 10
5.606352835525327
 20
-3.891064394942067
 30
0.0
 10
5.676754206648427
 20
-3.787573030828409
 30
0.0
 10
5.736881371005215
 20
-3.677749058448621
 30
0.0
 10
5.784704438685385
 20
-3.560909814377931
 30
0.0
 10
5.822450480776873
 20
-3.437789127450761
 30
0.0
 10
5.849726613708702
 20
-3.308308098244798
 30
0.0
 10
5.865856353716762
 20
-3.17231327252861
 30
0.0
 10
5.868031350294196
 20
-3.079533726152046
 30
0.0
 10
5.869140638292744
 20
-3.032214462124609
 30
0.0
  0
SPLINE
  5
E6
330
1B
100
AcDbEntity
 67
     1
  8
0
  6
Continuous
 62
     7
370
    15
100
AcDbSpline
210
0.0
220
0.0
230
1.0
 70
     8
 71
     3
 72
    23
 73
    19
 74
     0
 42
0.00000001
 43
0.00000001
 12
1.0
 22
0.0
 32
0.0
 13
1.0
 23
0.0
 33
0.0
 40
0.0
 40
0.0
 40
0.0
 40
0.0
 40
0.0687412630793655
 40
0.1347890881950342
 40
0.1985360495606912
 40
0.2603856506059212
 40
0.3209615782321972
 40
0.3799038495841491
 40
0.4385029357752681
 40
0.49615434397627
 40
0.5542654832085001
 40
0.612748760815695
 40
0.67251344252618
 40
0.7336464018979753
 40
0.7967896194814551
 40
0.8619356990410258
 40
0.9293977347748993
 40
1.0
 40
1.0
 40
1.0
 40
1.0
 10
6.022986792138897
 20
2.906086819926673
 30
0.0
 10
6.022250835364289
 20
2.93761854402858
 30
0.0
 10
6.020807758263921
 20
2.999446508056625
 30
0.0
 10
6.013034559935258
 20
3.090266744551834
 30
0.0
 10
5.998827595195469
 20
3.177157194229182
 30
0.0
 10
5.977309080254335
 20
3.25986345254193
 30
0.0
 10
5.95257634234125
 20
3.339414895294817
 30
0.0
 10
5.919688145220254
 20
3.414343748624225
 30
0.0
 10
5.882570564210839
 20
3.48573974414992
 30
0.0
 10
5.838487097707334
 20
3.552592958454715
 30
0.0
 10
5.790107646844204
 20
3.616388334994441
 30
0.0
 10
5.733843363180132
 20
3.674681636224922
 30
0.0
 10
5.673339308052439
 20
3.730605906366173
 30
0.0
 10
5.605194328170555
 20
3.780658238869655
 30
0.0
 10
5.532412317549912
 20
3.828222991593344
 30
0.0
 10
5.453547174214364
 20
3.871329324537216
 30
0.0
 10
5.369113599136531
 20
3.911060831657416
 30
0.0
 10
5.309752614443038
 20
3.933217864542376
 30
0.0
 10
5.279397048549156
 20
3.944548358388211
 30
0.0
  0
SPLINE
  5
E7
330
1B
100
AcDbEntity
 67
     1
  8
0
  6
Continuous
 62
     7
370
    15
100
AcDbSpline
210
0.0
220
0.0
230
1.0
 70
     8
 71
     3
 72
    19
 73
    15
 74
     0
 42
0.00000001
 43
0.00000001
 12
1.0
 22
0.0
 32
0.0
 13
1.0
 23
0.0
 33
0.0
 40
0.0
 40
0.0
 40
0.0
 40
0.0
 40
0.1417037608121965
 40
0.2650996741797979
 40
0.3700579908892225
 40
0.4580235488018151
 40
0.5359935177706022
 40
0.6098476150495562
 40
0.6800751591995015
 40
0.7485870935521843
 40
0.8156303639700208
 40
0.8780707438861866
 40
0.9395839280433523
 40
1.0
 40
1.0
 40
1.0
 40
1.0
 10
-0.3359875668354617
 20
-4.255772154432303
 30
0.0
 10
-0.2883970462018036
 20
-4.259825115437722
 30
0.0
 10
-0.1993646066834881
 20
-4.267407402850858
 30
0.0
 10
-0.075782806813975
 20
-4.285138845554489
 30
0.0
 10
0.0282571383331863
 20
-4.308839838144618
 30
0.0
 10
0.1152558303707107
 20
-4.337433802801637
 30
0.0
 10
0.1874939699532319
 20
-4.374155902941416
 30
0.0
 10
0.2506008098479776
 20
-4.414695479857728
 30
0.0
 10
0.3049514055180839
 20
-4.461776273866779
 30
0.0
 10
0.3508849496106723
 20
-4.513994341964032
 30
0.0
 10
0.3876303557977127
 20
-4.570071650501795
 30
0.0
 10
0.4136366136042821
 20
-4.629136591921188
 30
0.0
 10
0.4308097875873333
 20
-4.689361623995716
 30
0.0
 10
0.4324369444796565
 20
-4.730553730791309
 30
0.0
 10
0.4332432023953087
 20
-4.75096446212461
 30
0.0
  0
SPLINE
  5
EE
330
1B
100
AcDbEntity
 67
     1
  8
0
  6
Continuous
 62
     7
370
    15
100
AcDbSpline
210
0.0
220
0.0
230
1.0
 70
     8
 71
     3
 72
    23
 73
    19
 74
     0
 42
0.00000001
 43
0.00000001
 12
1.0
 22
0.0
 32
0.0
 13
1.0
 23
0.0
 33
0.0
 40
0.0
 40
0.0
 40
0.0
 40
0.0
 40
0.1055399964402575
 40
0.2020864154635843
 40
0.2906848989424204
 40
0.3705526096211885
 40
0.4426702615663771
 40
0.5076749275738718
 40
0.5655732034810437
 40
0.6164546657486227
 40
0.6633313570051056
 40
0.7088620244966135
 40
0.753411800349628
 40
0.7985150107871092
 40
0.8450643214401184
 40
0.8938731190084054
 40
0.9447078060036515
 40
1.0
 40
1.0
 40
1.0
 40
1.0
 10
4.559044484446592
 20
3.308330409670262
 30
0.0
 10
4.593233708056889
 20
3.307945347655264
 30
0.0
 10
4.658698724921837
 20
3.30720803663606
 30
0.0
 10
4.752846017427622
 20
3.303788082507571
 30
0.0
 10
4.838354211956682
 20
3.295547682980906
 30
0.0
 10
4.915590509552872
 20
3.285136246151998
 30
0.0
 10
4.984943556247862
 20
3.273114738779331
 30
0.0
 10
5.045794747332095
 20
3.255887188837459
 30
0.0
 10
5.099081706783407
 20
3.237427432970905
 30
0.0
 10
5.144172982137087
 20
3.214486744924649
 30
0.0
 10
5.182697931714753
 20
3.188398206987426
 30
0.0
 10
5.215961759899926
 20
3.158760979365568
 30
0.0
 10
5.243475715261028
 20
3.124459662174035
 30
0.0
 10
5.266121103927651
 20
3.086426417247799
 30
0.0
 10
5.283736754275061
 20
3.044324849899505
 30
0.0
 10
5.296594829507754
 20
2.998617139942422
 30
0.0
 10
5.303780592122795
 20
2.948782617765567
 30
0.0
 10
5.304607338588319
 20
2.914390011840465
 30
0.0
 10
5.30503807419018
 20
2.896471435311288
 30
0.0
  0
SPLINE
  5
EF
330
1B
100
AcDbEntity
 67
     1
  8
0
  6
Continuous
 62
     7
370
    15
100
AcDbSpline
210
0.0
220
0.0
230
1.0
 70
     8
 71
     3
 72
    23
 73
    19
 74
     0
 42
0.00000001
 43
0.00000001
 12
1.0
 22
0.0
 32
0.0
 13
1.0
 23
0.0
 33
0.0
 40
0.0
 40
0.0
 40
0.0
 40
0.0
 40
0.0637689599577403
 40
0.1252623047603746
 40
0.1854135826663913
 40
0.2468067624960856
 40
0.3094223888496968
 40
0.3725326822170094
 40
0.437733250736857
 40
0.5057495167426339
 40
0.5440132631112725
 40
0.5883695992066302
 40
0.6403890193945118
 40
0.6978974005877061
 40
0.7632716192950967
 40
0.8349786038393145
 40
0.9138736558434363
 40
1.0
 40
1.0
 40
1.0
 40
1.0
 10
5.30503807419018
 20
2.896471435311288
 30
0.0
 10
5.304223729070102
 20
2.875272451155523
 30
0.0
 10
5.302624098988654
 20
2.833630975182111
 30
0.0
 10
5.286750799042785
 20
2.773681851078079
 30
0.0
 10
5.261483934261611
 20
2.718194835090097
 30
0.0
 10
5.226849983086487
 20
2.667420631301888
 30
0.0
 10
5.183233024285308
 20
2.622908459221995
 30
0.0
 10
5.133179122792587
 20
2.583670625043748
 30
0.0
 10
5.075607994602509
 20
2.552644281718244
 30
0.0
 10
5.022301462190356
 20
2.532179636011344
 30
0.0
 10
4.973804977650301
 20
2.519935427370584
 30
0.0
 10
4.930038430392011
 20
2.510811151376562
 30
0.0
 10
4.879356505159053
 20
2.504344515087761
 30
0.0
 10
4.821720939868456
 20
2.497485496227521
 30
0.0
 10
4.757278649537535
 20
2.493037769690616
 30
0.0
 10
4.685678385140553
 20
2.489791815858015
 30
0.0
 10
4.607125782103627
 20
2.488463736681919
 30
0.0
 10
4.552367157178965
 20
2.488039173170098
 30
0.0
 10
4.523788074190179
 20
2.487817589157442
 30
0.0
  0
SPLINE
  5
F0
330
1B
100
AcDbEntity
 67
     1
  8
0
  6
Continuous
 62
     7
370
    15
100
AcDbSpline
210
0.0
220
0.0
230
1.0
 70
     8
 71
     3
 72
    10
 73
     6
 74
     0
 42
0.00000001
 43
0.00000001
 12
1.0
 22
0.0
 32
0.0
 13
1.0
 23
0.0
 33
0.0
 40
0.0
 40
0.0
 40
0.0
 40
0.0
 40
0.5
 40
0.5
 40
1.0
 40
1.0
 40
1.0
 40
1.0
 10
-3.412910643758538
 20
2.866823999413852
 30
0.0
 10
-3.412910643758538
 20
2.866823999413872
 30
0.0
 10
-3.434596346681839
 20
2.866956102748406
 30
0.0
 10
-3.508394163933417
 20
2.867405511846461
 30
0.0
 10
-3.560872247837187
 20
2.867724984380714
 30
0.0
 10
-3.612986242294217
 20
2.868041761095461
 30
0.0
  0
SPLINE
  5
F1
330
1B
100
AcDbEntity
 67
     1
  8
0
  6
Continuous
 62
     7
370
    15
100
AcDbSpline
210
0.0
220
0.0
230
1.0
 70
     8
 71
     3
 72
    14
 73
    10
 74
     0
 42
0.00000001
 43
0.00000001
 12
1.0
 22
0.0
 32
0.0
 13
1.0
 23
0.0
 33
0.0
 40
0.0
 40
0.0
 40
0.0
 40
0.0
 40
0.1250000000000002
 40
0.1250000000000002
 40
0.2500000000000005
 40
0.2500000000000005
 40
0.5000000000000003
 40
0.5000000000000003
 40
1.0
 40
1.0
 40
1.0
 40
1.0
 10
-3.612986242293816
 20
2.868041761095563
 30
0.0
 10
-3.614724500067175
 20
2.946435184073733
 30
0.0
 10
-3.621146693689604
 20
3.025021669137774
 30
0.0
 10
-3.648282116142391
 20
3.177566750221447
 30
0.0
 10
-3.668172445370987
 20
3.251855866097499
 30
0.0
 10
-3.738637327831861
 20
3.471337135816124
 30
0.0
 10
-3.803417922603361
 20
3.613330204671437
 30
0.0
 10
-4.037322471104377
 20
4.017096280729396
 30
0.0
 10
-4.236528886501064
 20
4.258556291905918
 30
0.0
 10
-4.441001771179762
 20
4.493332509273966
 30
0.0
  0
SPLINE
  5
F3
330
1B
100
AcDbEntity
 67
     1
  8
0
  6
Continuous
 62
     7
370
    15
100
AcDbSpline
210
0.0
220
0.0
230
1.0
 70
     8
 71
     3
 72
    12
 73
     8
 74
     0
 42
0.00000001
 43
0.00000001
 12
1.0
 22
0.0
 32
0.0
 13
1.0
 23
0.0
 33
0.0
 40
0.0
 40
0.0
 40
0.0
 40
0.0
 40
0.2500000000000006
 40
0.2500000000000006
 40
0.5000000000000011
 40
0.5000000000000011
 40
1.0
 40
1.0
 40
1.0
 40
1.0
 10
-5.925731156579052
 20
3.103202204542057
 30
0.0
 10
-5.925731156579046
 20
3.103202204542064
 30
0.0
 10
-5.916683483732874
 20
3.09464988600816
 30
0.0
 10
-5.887849385278981
 20
3.067443386839613
 30
0.0
 10
-5.868736733246804
 20
3.049422989590204
 30
0.0
 10
-5.805947185084841
 20
2.990802013073146
 30
0.0
 10
-5.756840016745329
 20
2.945983537986483
 30
0.0
 10
-5.70736402382225
 20
2.903202204545228
 30
0.0
  0
SPLINE
  5
F4
330
1B
100
AcDbEntity
 67
     1
  8
0
  6
Continuous
 62
     7
370
    15
100
AcDbSpline
210
0.0
220
0.0
230
1.0
 70
     8
 71
     3
 72
    18
 73
    14
 74
     0
 42
0.00000001
 43
0.00000001
 12
1.0
 22
0.0
 32
0.0
 13
1.0
 23
0.0
 33
0.0
 40
0.0
 40
0.0
 40
0.0
 40
0.0
 40
0.2500000000000002
 40
0.2500000000000002
 40
0.5000000000000004
 40
0.5000000000000004
 40
0.6250000000000003
 40
0.6250000000000003
 40
0.7500000000000002
 40
0.7500000000000002
 40
0.8750000000000001
 40
0.8750000000000001
 40
1.0
 40
1.0
 40
1.0
 40
1.0
 10
-5.707364023822253
 20
2.903202204542131
 30
0.0
 10
-5.687230891598105
 20
2.765820570061672
 30
0.0
 10
-5.653944617309748
 20
2.630913584813959
 30
0.0
 10
-5.542257375702087
 20
2.37703479888895
 30
0.0
 10
-5.465692592591391
 20
2.261707261129187
 30
0.0
 10
-5.318386426667839
 20
2.114311877297742
 30
0.0
 10
-5.265892944854257
 20
2.069604777326592
 30
0.0
 10
-5.150331785213507
 20
1.993986420626156
 30
0.0
 10
-5.087157729422211
 20
1.96240020129831
 30
0.0
 10
-4.958248357209345
 20
1.912411371105005
 30
0.0
 10
-4.89121424485915
 20
1.895537814524799
 30
0.0
 10
-4.75390916753902
 20
1.87198134830715
 30
0.0
 10
-4.684127536592526
 20
1.868688690793896
 30
0.0
 10
-4.614457582879597
 20
1.867363950379868
 30
0.0
  0
SPLINE
  5
F5
330
1B
100
AcDbEntity
 67
     1
  8
0
  6
Continuous
 62
     7
370
    15
100
AcDbSpline
210
0.0
220
0.0
230
1.0
 70
     8
 71
     3
 72
    10
 73
     6
 74
     0
 42
0.00000001
 43
0.00000001
 12
1.0
 22
0.0
 32
0.0
 13
1.0
 23
0.0
 33
0.0
 40
0.0
 40
0.0
 40
0.0
 40
0.0
 40
0.5
 40
0.5
 40
1.0
 40
1.0
 40
1.0
 40
1.0
 10
-4.613231156579052
 20
1.667304768644621
 30
0.0
 10
-4.613231156579048
 20
1.667304768644621
 30
0.0
 10
-4.613364159431948
 20
1.688987243780867
 30
0.0
 10
-4.613816705269574
 20
1.762779942446711
 30
0.0
 10
-4.614138397531425
 20
1.815248343807806
 30
0.0
 10
-4.614457582879882
 20
1.867363950378414
 30
0.0
  0
SPLINE
  5
F6
330
1B
100
AcDbEntity
 67
     1
  8
0
  6
Continuous
 62
     7
370
    15
100
AcDbSpline
210
0.0
220
0.0
230
1.0
 70
     8
 71
     3
 72
    16
 73
    12
 74
     0
 42
0.00000001
 43
0.00000001
 12
1.0
 22
0.0
 32
0.0
 13
1.0
 23
0.0
 33
0.0
 40
0.0
 40
0.0
 40
0.0
 40
0.0
 40
0.125
 40
0.125
 40
0.25
 40
0.25
 40
0.5
 40
0.5
 40
0.75
 40
0.75
 40
1.0
 40
1.0
 40
1.0
 40
1.0
 10
-0.0304748177297479
 20
-1.840430294019182
 30
0.0
 10
-0.097057571006775
 20
-1.8418859395138
 30
0.0
 10
-0.1635653288609288
 20
-1.844170105167481
 30
0.0
 10
-0.2953054415516632
 20
-1.862828591187181
 30
0.0
 10
-0.3607422840851588
 20
-1.877204624969633
 30
0.0
 10
-0.549352176898792
 20
-1.937586097956386
 30
0.0
 10
-0.6683365632392156
 20
-2.002560515516948
 30
0.0
 10
-0.8695890622736968
 20
-2.175153806697976
 30
0.0
 10
-0.9527104616543887
 20
-2.280007572468039
 30
0.0
 10
-1.075791356176322
 20
-2.515055061239529
 30
0.0
 10
-1.115045512129914
 20
-2.642612581510188
 30
0.0
 10
-1.138300471082718
 20
-2.773720872381043
 30
0.0
  0
SPLINE
  5
F7
330
1B
100
AcDbEntity
 67
     1
  8
0
  6
Continuous
 62
     7
370
    15
100
AcDbSpline
210
0.0
220
0.0
230
1.0
 70
     8
 71
     3
 72
    12
 73
     8
 74
     0
 42
0.00000001
 43
0.00000001
 12
1.0
 22
0.0
 32
0.0
 13
1.0
 23
0.0
 33
0.0
 40
0.0
 40
0.0
 40
0.0
 40
0.0
 40
0.25
 40
0.25
 40
0.5
 40
0.5
 40
1.0
 40
1.0
 40
1.0
 40
1.0
 10
-1.361628592476488
 20
-2.97372087238102
 30
0.0
 10
-1.361628592476487
 20
-2.973720872381021
 30
0.0
 10
-1.352265179666656
 20
-2.965025649766883
 30
0.0
 10
-1.322593390158041
 20
-2.937529633707593
 30
0.0
 10
-1.303023923061551
 20
-2.91941176423541
 30
0.0
 10
-1.238909327841419
 20
-2.860732539843438
 30
0.0
 10
-1.188825996837592
 20
-2.816105714924706
 30
0.0
 10
-1.138300471082718
 20
-2.773720872381043
 30
0.0
  0
SPLINE
  5
F8
330
1B
100
AcDbEntity
 67
     1
  8
0
  6
Continuous
 62
     7
370
    15
100
AcDbSpline
210
0.0
220
0.0
230
1.0
 70
     8
 71
     3
 72
    10
 73
     6
 74
     0
 42
0.00000001
 43
0.00000001
 12
1.0
 22
0.0
 32
0.0
 13
1.0
 23
0.0
 33
0.0
 40
0.0
 40
0.0
 40
0.0
 40
0.0
 40
0.5
 40
0.5
 40
1.0
 40
1.0
 40
1.0
 40
1.0
 10
-0.0306991052969989
 20
-1.640387539047687
 30
0.0
 10
-0.0306991052970003
 20
-1.640387539047686
 30
0.0
 10
-0.0306748192892029
 20
-1.662066947435834
 30
0.0
 10
-0.0305921309229368
 20
-1.735856107405697
 30
0.0
 10
-0.0305333310179676
 20
-1.788309178826714
 30
0.0
 10
-0.0304748177297871
 20
-1.840430294020354
 30
0.0
  0
SPLINE
  5
F9
330
1B
100
AcDbEntity
 67
     1
  8
0
  6
Continuous
 62
     7
370
    15
100
AcDbSpline
210
0.0
220
0.0
230
1.0
 70
     8
 71
     3
 72
    20
 73
    16
 74
     0
 42
0.00000001
 43
0.00000001
 12
1.0
 22
0.0
 32
0.0
 13
1.0
 23
0.0
 33
0.0
 40
0.0
 40
0.0
 40
0.0
 40
0.0
 40
0.1249999999999999
 40
0.1249999999999999
 40
0.2499999999999998
 40
0.2499999999999998
 40
0.4999999999999995
 40
0.4999999999999995
 40
0.6249999999999996
 40
0.6249999999999996
 40
0.7499999999999997
 40
0.7499999999999997
 40
0.8749999999999999
 40
0.8749999999999999
 40
1.0
 40
1.0
 40
1.0
 40
1.0
 10
-4.614457582879598
 20
1.867363950379867
 30
0.0
 10
-4.548469890011371
 20
1.869427398778685
 30
0.0
 10
-4.482506638378201
 20
1.871714052895628
 30
0.0
 10
-4.352399261688777
 20
1.892900247223895
 30
0.0
 10
-4.287961121409101
 20
1.910399523918984
 30
0.0
 10
-4.104874553598727
 20
1.981763247088009
 30
0.0
 10
-3.992277757026624
 20
2.056655903734623
 30
0.0
 10
-3.855729238850667
 20
2.201753258166786
 30
0.0
 10
-3.816928226507432
 20
2.25452383934964
 30
0.0
 10
-3.747743529946148
 20
2.365586331702892
 30
0.0
 10
-3.716747635610758
 20
2.42410385954477
 30
0.0
 10
-3.666130259665934
 20
2.545668921282079
 30
0.0
 10
-3.64683691093231
 20
2.607978330124878
 30
0.0
 10
-3.619100317992498
 20
2.735351237806498
 30
0.0
 10
-3.615264563008354
 20
2.80169335557939
 30
0.0
 10
-3.612986242293814
 20
2.868041761095563
 30
0.0
  0
SPLINE
  5
FA
330
1B
100
AcDbEntity
 67
     1
  8
0
  6
Continuous
 62
     7
370
    15
100
AcDbSpline
210
0.0
220
0.0
230
1.0
 70
     8
 71
     3
 72
    18
 73
    14
 74
     0
 42
0.00000001
 43
0.00000001
 12
1.0
 22
0.0
 32
0.0
 13
1.0
 23
0.0
 33
0.0
 40
0.0
 40
0.0
 40
0.0
 40
0.0
 40
0.125
 40
0.125
 40
0.2499999999999999
 40
0.2499999999999999
 40
0.5
 40
0.5
 40
0.75
 40
0.75
 40
0.875
 40
0.875
 40
1.0
 40
1.0
 40
1.0
 40
1.0
 10
1.156250555001637
 20
-2.936108141084016
 30
0.0
 10
1.153895250546911
 20
-2.860178526669641
 30
0.0
 10
1.150268218646626
 20
-2.783563696468585
 30
0.0
 10
1.120741219479553
 20
-2.636316010855074
 30
0.0
 10
1.098363019544919
 20
-2.565020330594274
 30
0.0
 10
1.005244076214474
 20
-2.359077893354701
 30
0.0
 10
0.9120154184742232
 20
-2.237066070718375
 30
0.0
 10
0.6882168242634186
 20
-2.033802339250891
 30
0.0
 10
0.55527779216063
 20
-1.956118135443662
 30
0.0
 10
0.3429709673370367
 20
-1.884437809579093
 30
0.0
 10
0.2692999347805511
 20
-1.867111766898292
 30
0.0
 10
0.1202137013562589
 20
-1.844638881608052
 30
0.0
 10
0.044924297365339
 20
-1.841909294735254
 30
0.0
 10
-0.0304748177297481
 20
-1.840430294019181
 30
0.0
  0
SPLINE
  5
FB
330
1B
100
AcDbEntity
 67
     1
  8
0
  6
Continuous
 62
     7
370
    15
100
AcDbSpline
210
0.0
220
0.0
230
1.0
 70
     8
 71
     3
 72
    10
 73
     6
 74
     0
 42
0.00000001
 43
0.00000001
 12
1.0
 22
0.0
 32
0.0
 13
1.0
 23
0.0
 33
0.0
 40
0.0
 40
0.0
 40
0.0
 40
0.0
 40
0.5
 40
0.5
 40
1.0
 40
1.0
 40
1.0
 40
1.0
 10
1.356320125472231
 20
-2.935259333919481
 30
0.0
 10
1.356320125472231
 20
-2.935259333919487
 30
0.0
 10
1.334635810472245
 20
-2.93535155855689
 30
0.0
 10
1.260839850920852
 20
-2.935665121145488
 30
0.0
 10
1.20836567491698
 20
-2.935887872266369
 30
0.0
 10
1.156250555043205
 20
-2.936108141083859
 30
0.0
  0
SPLINE
  5
FC
330
1B
100
AcDbEntity
 67
     1
  8
0
  6
Continuous
 62
     7
370
    15
100
AcDbSpline
210
0.0
220
0.0
230
1.0
 70
     8
 71
     3
 72
    10
 73
     6
 74
     0
 42
0.00000001
 43
0.00000001
 12
1.0
 22
0.0
 32
0.0
 13
1.0
 23
0.0
 33
0.0
 40
0.0
 40
0.0
 40
0.0
 40
0.0
 40
0.5
 40
0.5
 40
1.0
 40
1.0
 40
1.0
 40
1.0
 10
5.869140638292744
 20
-3.032214462124609
 30
0.0
 10
5.869140638292745
 20
-3.032214462124629
 30
0.0
 10
5.847457015785053
 20
-3.032267368421524
 30
0.0
 10
5.77366190813233
 20
-3.032447419997769
 30
0.0
 10
5.721190047103215
 20
-3.032575443431894
 30
0.0
 10
5.669074136049437
 20
-3.032702590201091
 30
0.0
  0
SPLINE
  5
FD
330
1B
100
AcDbEntity
 67
     1
  8
0
  6
Continuous
 62
     7
370
    15
100
AcDbSpline
210
0.0
220
0.0
230
1.0
 70
     8
 71
     3
 72
    20
 73
    16
 74
     0
 42
0.00000001
 43
0.00000001
 12
1.0
 22
0.0
 32
0.0
 13
1.0
 23
0.0
 33
0.0
 40
0.0
 40
0.0
 40
0.0
 40
0.0
 40
0.1249999999999998
 40
0.1249999999999998
 40
0.2499999999999997
 40
0.2499999999999997
 40
0.3749999999999995
 40
0.3749999999999995
 40
0.4999999999999993
 40
0.4999999999999993
 40
0.749999999999999
 40
0.749999999999999
 40
0.8749999999999994
 40
0.8749999999999994
 40
1.0
 40
1.0
 40
1.0
 40
1.0
 10
5.669074136049555
 20
-3.032702590200989
 30
0.0
 10
5.666887218156178
 20
-2.955670638476981
 30
0.0
 10
5.663508921843326
 20
-2.878170491856236
 30
0.0
 10
5.638868039095767
 20
-2.72721390897504
 30
0.0
 10
5.619567043264712
 20
-2.653642313464392
 30
0.0
 10
5.566059577288721
 20
-2.510570461955839
 30
0.0
 10
5.530887658432396
 20
-2.441084050110813
 30
0.0
 10
5.449587168040728
 20
-2.312048957627679
 30
0.0
 10
5.402409721648072
 20
-2.252081549343982
 30
0.0
 10
5.244114046824611
 20
-2.083865112554474
 30
0.0
 10
5.11836046626555
 20
-1.989507120369254
 30
0.0
 10
4.909010623562933
 20
-1.899244414724752
 30
0.0
 10
4.83517201459543
 20
-1.875837895210696
 30
0.0
 10
4.684785907865299
 20
-1.846447823093476
 30
0.0
 10
4.608276641476971
 20
-1.842609031484084
 30
0.0
 10
4.531562619794681
 20
-1.840459080118786
 30
0.0
  0
SPLINE
  5
FE
330
1B
100
AcDbEntity
 67
     1
  8
0
  6
Continuous
 62
     7
370
    15
100
AcDbSpline
210
0.0
220
0.0
230
1.0
 70
     8
 71
     3
 72
    10
 73
     6
 74
     0
 42
0.00000001
 43
0.00000001
 12
1.0
 22
0.0
 32
0.0
 13
1.0
 23
0.0
 33
0.0
 40
0.0
 40
0.0
 40
0.0
 40
0.0
 40
0.5
 40
0.5
 40
1.0
 40
1.0
 40
1.0
 40
1.0
 10
4.531800894703002
 20
-1.640387539047687
 30
0.0
 10
4.531800894702998
 20
-1.640387539047686
 30
0.0
 10
4.531775104451405
 20
-1.66207210695476
 30
0.0
 10
4.531687289852034
 20
-1.735868792500267
 30
0.0
 10
4.531624814321659
 20
-1.788343540309741
 30
0.0
 10
4.5315626197954
 20
-1.840459080093659
 30
0.0
  0
SPLINE
  5
FF
330
1B
100
AcDbEntity
 67
     1
  8
0
  6
Continuous
 62
     7
370
    15
100
AcDbSpline
210
0.0
220
0.0
230
1.0
 70
     8
 71
     3
 72
    14
 73
    10
 74
     0
 42
0.00000001
 43
0.00000001
 12
1.0
 22
0.0
 32
0.0
 13
1.0
 23
0.0
 33
0.0
 40
0.0
 40
0.0
 40
0.0
 40
0.0
 40
0.25
 40
0.25
 40
0.5
 40
0.5
 40
0.75
 40
0.75
 40
1.0
 40
1.0
 40
1.0
 40
1.0
 10
4.531562619794679
 20
-1.840459080118794
 30
0.0
 10
4.419730084211838
 20
-1.843326078725762
 30
0.0
 10
4.3086362922628
 20
-1.851721882074284
 30
0.0
 10
4.093861868094042
 20
-1.909633489828316
 30
0.0
 10
3.990292764427775
 20
-1.95400019403529
 30
0.0
 10
3.803521789515497
 20
-2.072928366194452
 30
0.0
 10
3.718183468675913
 20
-2.147237401296558
 30
0.0
 10
3.573760351793373
 20
-2.31850663715271
 30
0.0
 10
3.518435999942365
 20
-2.414528003651597
 30
0.0
 10
3.474605461658888
 20
-2.517310615970836
 30
0.0
  0
SPLINE
  5
100
330
1B
100
AcDbEntity
 67
     1
  8
0
  6
Continuous
 62
     7
370
    15
100
AcDbSpline
210
0.0
220
0.0
230
1.0
 70
     8
 71
     3
 72
    12
 73
     8
 74
     0
 42
0.00000001
 43
0.00000001
 12
1.0
 22
0.0
 32
0.0
 13
1.0
 23
0.0
 33
0.0
 40
0.0
 40
0.0
 40
0.0
 40
0.0
 40
0.25
 40
0.25
 40
0.5
 40
0.5
 40
1.0
 40
1.0
 40
1.0
 40
1.0
 10
3.202473971626077
 20
-2.717310615970764
 30
0.0
 10
3.202473971626082
 20
-2.717310615970771
 30
0.0
 10
3.21575368429786
 20
-2.706903834597913
 30
0.0
 10
3.253950887136949
 20
-2.677110956576163
 30
0.0
 10
3.278264293387219
 20
-2.658201223675814
 30
0.0
 10
3.355710287964377
 20
-2.599378200730111
 30
0.0
 10
3.414935901451943
 20
-2.556775183445301
 30
0.0
 10
3.474605461658888
 20
-2.517310615970827
 30
0.0
  0
SPLINE
  5
101
330
1B
100
AcDbEntity
 67
     1
  8
0
  6
Continuous
 62
     7
370
    15
100
AcDbSpline
210
0.0
220
0.0
230
1.0
 70
     8
 71
     3
 72
    10
 73
     6
 74
     0
 42
0.00000001
 43
0.00000001
 12
1.0
 22
0.0
 32
0.0
 13
1.0
 23
0.0
 33
0.0
 40
0.0
 40
0.0
 40
0.0
 40
0.0
 40
0.5
 40
0.5
 40
1.0
 40
1.0
 40
1.0
 40
1.0
 10
4.656800894703002
 20
-4.358336256996405
 30
0.0
 10
4.656800894702999
 20
-4.358336256996405
 30
0.0
 10
4.65682554999621
 20
-4.336654320661579
 30
0.0
 10
4.656910784164259
 20
-4.262861692637281
 30
0.0
 10
4.656972346145803
 20
-4.210395335137402
 30
0.0
 10
4.657037831618622
 20
-4.158278181880865
 30
0.0
  0
SPLINE
  5
102
330
1B
100
AcDbEntity
 67
     1
  8
0
  6
Continuous
 62
     7
370
    15
100
AcDbSpline
210
0.0
220
0.0
230
1.0
 70
     8
 71
     3
 72
    18
 73
    14
 74
     0
 42
0.00000001
 43
0.00000001
 12
1.0
 22
0.0
 32
0.0
 13
1.0
 23
0.0
 33
0.0
 40
0.0
 40
0.0
 40
0.0
 40
0.0
 40
0.1249999999999998
 40
0.1249999999999998
 40
0.2499999999999996
 40
0.2499999999999996
 40
0.4999999999999999
 40
0.4999999999999999
 40
0.7500000000000001
 40
0.7500000000000001
 40
0.8750000000000001
 40
0.8750000000000001
 40
1.0
 40
1.0
 40
1.0
 40
1.0
 10
4.657037831618656
 20
-4.15827818188133
 30
0.0
 10
4.72806093024375
 20
-4.15664427542861
 30
0.0
 10
4.799435995846432
 20
-4.152450159847761
 30
0.0
 10
4.938205210277403
 20
-4.125023878095739
 30
0.0
 10
5.005374579661946
 20
-4.104570552165027
 30
0.0
 10
5.19819487769531
 20
-4.016776641585687
 30
0.0
 10
5.311582700514319
 20
-3.926859759905708
 30
0.0
 10
5.497018273668979
 20
-3.711863369609806
 30
0.0
 10
5.566319015925875
 20
-3.584976288863423
 30
0.0
 10
5.629816248160457
 20
-3.384060682238966
 30
0.0
 10
5.645285378732529
 20
-3.314964748306669
 30
0.0
 10
5.664865931675154
 20
-3.174411646944385
 30
0.0
 10
5.667407777144653
 20
-3.103590035579509
 30
0.0
 10
5.669074136049555
 20
-3.032702590200989
 30
0.0
  0
SPLINE
  5
104
330
1B
100
AcDbEntity
 67
     1
  8
0
  6
Continuous
 62
     7
370
    15
100
AcDbSpline
210
0.0
220
0.0
230
1.0
 70
     8
 71
     3
 72
    20
 73
    16
 74
     0
 42
0.00000001
 43
0.00000001
 12
1.0
 22
0.0
 32
0.0
 13
1.0
 23
0.0
 33
0.0
 40
0.0
 40
0.0
 40
0.0
 40
0.0
 40
0.2500000000000007
 40
0.2500000000000007
 40
0.3750000000000003
 40
0.3750000000000003
 40
0.5
 40
0.5
 40
0.625
 40
0.625
 40
0.75
 40
0.75
 40
0.875
 40
0.875
 40
1.0
 40
1.0
 40
1.0
 40
1.0
 10
4.397276911394069
 20
1.969867611378076
 30
0.0
 10
4.560573835148871
 20
1.970447221738445
 30
0.0
 10
4.723690383143878
 20
1.973828168019058
 30
0.0
 10
4.967218863151306
 20
1.99669302000644
 30
0.0
 10
5.048500097215393
 20
2.007754017659568
 30
0.0
 10
5.208802493837463
 20
2.039525262336731
 30
0.0
 10
5.287241242561614
 20
2.061501805615614
 30
0.0
 10
5.43555267533419
 20
2.13399537591544
 30
0.0
 10
5.501666058349771
 20
2.180860096265682
 30
0.0
 10
5.619207882105806
 20
2.293977413383707
 30
0.0
 10
5.668847960718105
 20
2.360539194591253
 30
0.0
 10
5.74926968396592
 20
2.502629617923407
 30
0.0
 10
5.779265003522708
 20
2.580452931585479
 30
0.0
 10
5.814828589222857
 20
2.739887867206657
 30
0.0
 10
5.822187748934193
 20
2.822425230533862
 30
0.0
 10
5.822964840613968
 20
2.904691844580869
 30
0.0
  0
SPLINE
  5
105
330
1B
100
AcDbEntity
 67
     1
  8
0
  6
Continuous
 62
     7
370
    15
100
AcDbSpline
210
0.0
220
0.0
230
1.0
 70
     8
 71
     3
 72
    10
 73
     6
 74
     0
 42
0.00000001
 43
0.00000001
 12
1.0
 22
0.0
 32
0.0
 13
1.0
 23
0.0
 33
0.0
 40
0.0
 40
0.0
 40
0.0
 40
0.0
 40
0.5
 40
0.5
 40
1.0
 40
1.0
 40
1.0
 40
1.0
 10
6.022986792138897
 20
2.906086819926673
 30
0.0
 10
6.022986792138896
 20
2.906086819926672
 30
0.0
 10
6.0013097530502
 20
2.905935513773565
 30
0.0
 10
5.92752371427747
 20
2.905420652514445
 30
0.0
 10
5.875093311731001
 20
2.905054938993546
 30
0.0
 10
5.8229648406206
 20
2.904691844580962
 30
0.0
  0
SPLINE
  5
106
330
1B
100
AcDbEntity
 67
     1
  8
0
  6
Continuous
 62
     7
370
    15
100
AcDbSpline
210
0.0
220
0.0
230
1.0
 70
     8
 71
     3
 72
    10
 73
     6
 74
     0
 42
0.00000001
 43
0.00000001
 12
1.0
 22
0.0
 32
0.0
 13
1.0
 23
0.0
 33
0.0
 40
0.0
 40
0.0
 40
0.0
 40
0.0
 40
0.5
 40
0.5
 40
1.0
 40
1.0
 40
1.0
 40
1.0
 10
0.0342047408568458
 20
-5.845515744175892
 30
0.0
 10
0.0342047408568446
 20
-5.845515744175892
 30
0.0
 10
0.0341815625091865
 20
-5.823835052976016
 30
0.0
 10
0.034102653759976
 20
-5.750044212356429
 30
0.0
 10
0.0340465393475657
 20
-5.697583720984741
 30
0.0
 10
0.0339907249322125
 20
-5.64546494973884
 30
0.0
  0
SPLINE
  5
107
330
1B
100
AcDbEntity
 67
     1
  8
0
  6
Continuous
 62
     7
370
    15
100
AcDbSpline
210
0.0
220
0.0
230
1.0
 70
     8
 71
     3
 72
    18
 73
    14
 74
     0
 42
0.00000001
 43
0.00000001
 12
1.0
 22
0.0
 32
0.0
 13
1.0
 23
0.0
 33
0.0
 40
0.0
 40
0.0
 40
0.0
 40
0.0
 40
0.1250000000000002
 40
0.1250000000000002
 40
0.2500000000000003
 40
0.2500000000000003
 40
0.5000000000000008
 40
0.5000000000000008
 40
0.7500000000000012
 40
0.7500000000000012
 40
0.8750000000000006
 40
0.8750000000000006
 40
1.0
 40
1.0
 40
1.0
 40
1.0
 10
0.033990724932251
 20
-5.645464949738903
 30
0.0
 10
0.0920945653671125
 20
-5.644088553112654
 30
0.0
 10
0.1501194938102215
 20
-5.641939015804751
 30
0.0
 10
0.2647241369738579
 20
-5.623480451638186
 30
0.0
 10
0.3215034129876319
 20
-5.608845120559308
 30
0.0
 10
0.4844129451921881
 20
-5.550918090496456
 30
0.0
 10
0.584915608932562
 20
-5.488337300705352
 30
0.0
 10
0.7565375008456502
 20
-5.331145026429557
 30
0.0
 10
0.8292074100471428
 20
-5.23903755482708
 30
0.0
 10
0.9037946716891943
 20
-5.081807206088641
 30
0.0
 10
0.921431246986918
 20
-5.0272892322021
 30
0.0
 10
0.9454022862203274
 20
-4.914956335636252
 30
0.0
 10
0.9497359412841633
 20
-4.856512331297288
 30
0.0
 10
0.9511024441920763
 20
-4.798158630057465
 30
0.0
  0
SPLINE
  5
108
330
1B
100
AcDbEntity
 67
     1
  8
0
  6
Continuous
 62
     7
370
    15
100
AcDbSpline
210
0.0
220
0.0
230
1.0
 70
     8
 71
     3
 72
    10
 73
     6
 74
     0
 42
0.00000001
 43
0.00000001
 12
1.0
 22
0.0
 32
0.0
 13
1.0
 23
0.0
 33
0.0
 40
0.0
 40
0.0
 40
0.0
 40
0.0
 40
0.5
 40
0.5
 40
1.0
 40
1.0
 40
1.0
 40
1.0
 10
1.151191920344026
 20
-4.796637539047687
 30
0.0
 10
1.151191920344026
 20
-4.796637539047692
 30
0.0
 10
1.129503119473456
 20
-4.796802574995139
 30
0.0
 10
1.055700577748424
 20
-4.797363955902265
 30
0.0
 10
1.003215263950389
 20
-4.79776304542757
 30
0.0
 10
0.9511024441982731
 20
-4.798158630057647
 30
0.0
  0
SPLINE
  5
109
330
1B
100
AcDbEntity
 67
     1
  8
0
  6
Continuous
 62
     7
370
    15
100
AcDbSpline
210
0.0
220
0.0
230
1.0
 70
     8
 71
     3
 72
    16
 73
    12
 74
     0
 42
0.00000001
 43
0.00000001
 12
1.0
 22
0.0
 32
0.0
 13
1.0
 23
0.0
 33
0.0
 40
0.0
 40
0.0
 40
0.0
 40
0.0
 40
0.1250000000000003
 40
0.1250000000000003
 40
0.2500000000000007
 40
0.2500000000000007
 40
0.5000000000000004
 40
0.5000000000000004
 40
0.7500000000000002
 40
0.7500000000000002
 40
1.0
 40
1.0
 40
1.0
 40
1.0
 10
0.8384208225244018
 20
-2.944507017714292
 30
0.0
 10
0.8363662868268715
 20
-3.003821566556215
 30
0.0
 10
0.8310590962657519
 20
-3.062630306186393
 30
0.0
 10
0.8024138616270752
 20
-3.176103350706705
 30
0.0
 10
0.7810339245170568
 20
-3.232185704102416
 30
0.0
 10
0.6972378345286269
 20
-3.386489414061957
 30
0.0
 10
0.6152140182689089
 20
-3.474313934098076
 30
0.0
 10
0.4296291545541261
 20
-3.618375312184812
 30
0.0
 10
0.3218209453340191
 20
-3.67090181736516
 30
0.0
 10
0.0973072778843536
 20
-3.746332891154952
 30
0.0
 10
-0.0185499940346038
 20
-3.766414385010597
 30
0.0
 10
-0.1359875668354664
 20
-3.778586117675883
 30
0.0
  0
SPLINE
  5
10A
330
1B
100
AcDbEntity
 67
     1
  8
0
  6
Continuous
 62
     7
370
    15
100
AcDbSpline
210
0.0
220
0.0
230
1.0
 70
     8
 71
     3
 72
    10
 73
     6
 74
     0
 42
0.00000001
 43
0.00000001
 12
1.0
 22
0.0
 32
0.0
 13
1.0
 23
0.0
 33
0.0
 40
0.0
 40
0.0
 40
0.0
 40
0.0
 40
0.5
 40
0.5
 40
1.0
 40
1.0
 40
1.0
 40
1.0
 10
-0.3359875668354617
 20
-3.589105487765636
 30
0.0
 10
-0.3359875668354659
 20
-3.589105487765641
 30
0.0
 10
-0.3049672264624719
 20
-3.619679748994771
 30
0.0
 10
-0.2281175065089337
 20
-3.693864322703096
 30
0.0
 10
-0.1822486565398812
 20
-3.73685258965721
 30
0.0
 10
-0.1359875668354515
 20
-3.778586117675884
 30
0.0
  0
SPLINE
  5
10B
330
1B
100
AcDbEntity
 67
     1
  8
0
  6
Continuous
 62
     7
370
    15
100
AcDbSpline
210
0.0
220
0.0
230
1.0
 70
    24
 71
     3
 72
    10
 73
     6
 74
     0
 42
0.00000001
 43
0.00000001
 12
1.0
 22
0.0
 32
0.0
 13
1.0
 23
0.0
 33
0.0
 40
0.0
 40
0.0
 40
0.0
 40
0.0
 40
0.5
 40
0.5
 40
1.0
 40
1.0
 40
1.0
 40
1.0
 10
0.6383714075235136
 20
-2.94247087238102
 30
0.0
 10
0.6383714075235134
 20
-2.942470872381025
 30
0.0
 10
0.660052602465336
 20
-2.942691548177058
 30
0.0
 10
0.7338420102818815
 20
-2.943442592404654
 30
0.0
 10
0.7863063942698363
 20
-2.943976586021486
 30
0.0
 10
0.8384208225244195
 20
-2.944507017714288
 30
0.0
  0
SPLINE
  5
10C
330
1B
100
AcDbEntity
 67
     1
  8
0
  6
Continuous
 62
     7
370
    15
100
AcDbSpline
210
0.0
220
0.0
230
1.0
 70
     8
 71
     3
 72
    10
 73
     6
 74
     0
 42
0.00000001
 43
0.00000001
 12
1.0
 22
0.0
 32
0.0
 13
1.0
 23
0.0
 33
0.0
 40
0.0
 40
0.0
 40
0.0
 40
0.0
 40
0.5
 40
0.5
 40
1.0
 40
1.0
 40
1.0
 40
1.0
 10
-0.8496093617072555
 20
-5.47372087238102
 30
0.0
 10
-0.8496093617072542
 20
-5.473720872381021
 30
0.0
 10
-0.8338787424582704
 20
-5.458801408515281
 30
0.0
 10
-0.7803385824241789
 20
-5.408022500866097
 30
0.0
 10
-0.7422754208276185
 20
-5.37192271294736
 30
0.0
 10
-0.7044585619022043
 20
-5.336057910671687
 30
0.0
  0
SPLINE
  5
10D
330
1B
100
AcDbEntity
 67
     1
  8
0
  6
Continuous
 62
     7
370
    15
100
AcDbSpline
210
0.0
220
0.0
230
1.0
 70
     8
 71
     3
 72
    14
 73
    10
 74
     0
 42
0.00000001
 43
0.00000001
 12
1.0
 22
0.0
 32
0.0
 13
1.0
 23
0.0
 33
0.0
 40
0.0
 40
0.0
 40
0.0
 40
0.0
 40
0.25
 40
0.25
 40
0.5
 40
0.5
 40
0.75
 40
0.75
 40
1.0
 40
1.0
 40
1.0
 40
1.0
 10
-0.7044585619038146
 20
-5.336057910673274
 30
0.0
 10
-0.6557124063625371
 20
-5.385209707229043
 30
0.0
 10
-0.6049948460607635
 20
-5.432498362927761
 30
0.0
 10
-0.4935213001034495
 20
-5.51110513062258
 30
0.0
 10
-0.4336393514323016
 20
-5.544179202913405
 30
0.0
 10
-0.3058215144724866
 20
-5.596992011082898
 30
0.0
 10
-0.2396841840349558
 20
-5.615560521303633
 30
0.0
 10
-0.1038918038893574
 20
-5.640324824845992
 30
0.0
 10
-0.034946461737915
 20
-5.643979669546658
 30
0.0
 10
0.0339907249322512
 20
-5.645464949738903
 30
0.0
  0
SPLINE
  5
10E
330
1B
100
AcDbEntity
 67
     1
  8
0
  6
Continuous
 62
     7
370
    15
100
AcDbSpline
210
0.0
220
0.0
230
1.0
 70
     8
 71
     3
 72
    16
 73
    12
 74
     0
 42
0.00000001
 43
0.00000001
 12
1.0
 22
0.0
 32
0.0
 13
1.0
 23
0.0
 33
0.0
 40
0.0
 40
0.0
 40
0.0
 40
0.0
 40
0.2500000000000003
 40
0.2500000000000003
 40
0.5000000000000007
 40
0.5000000000000007
 40
0.750000000000001
 40
0.750000000000001
 40
0.8750000000000004
 40
0.8750000000000004
 40
1.0
 40
1.0
 40
1.0
 40
1.0
 10
-4.697735272517733
 20
4.282075857626167
 30
0.0
 10
-4.606629122225613
 20
4.184384550681393
 30
0.0
 10
-4.515541843014196
 20
4.086676408400902
 30
0.0
 10
-4.343627129908939
 20
3.882107074098272
 30
0.0
 10
-4.260904634192236
 20
3.776999012453696
 30
0.0
 10
-4.114698601492476
 20
3.55344049322058
 30
0.0
 10
-4.053451363421706
 20
3.434128986501726
 30
0.0
 10
-3.984198945990775
 20
3.247368903379171
 30
0.0
 10
-3.964530563221472
 20
3.183201584768351
 30
0.0
 10
-3.938211671093627
 20
3.05195156822482
 30
0.0
 10
-3.933921781875231
 20
2.985242839128506
 30
0.0
 10
-3.930677332398718
 20
2.918406373680625
 30
0.0
  0
SPLINE
  5
10F
330
1B
100
AcDbEntity
 67
     1
  8
0
  6
Continuous
 62
     7
370
    15
100
AcDbSpline
210
0.0
220
0.0
230
1.0
 70
    24
 71
     3
 72
    10
 73
     6
 74
     0
 42
0.00000001
 43
0.00000001
 12
1.0
 22
0.0
 32
0.0
 13
1.0
 23
0.0
 33
0.0
 40
0.0
 40
0.0
 40
0.0
 40
0.0
 40
0.5
 40
0.5
 40
1.0
 40
1.0
 40
1.0
 40
1.0
 10
-4.130859361707257
 20
2.917304768644621
 30
0.0
 10
-4.130859361707255
 20
2.917304768644641
 30
0.0
 10
-4.109149848087891
 20
2.917424236459084
 30
0.0
 10
-4.035311121998103
 20
2.917830572196575
 30
0.0
 10
-3.982794653804131
 20
2.918119571194413
 30
0.0
 10
-3.930677332398675
 20
2.918406373680605
 30
0.0
  0
SPLINE
  5
111
330
1B
100
AcDbEntity
 67
     1
  8
0
  6
Continuous
 62
     7
370
    15
100
AcDbSpline
210
0.0
220
0.0
230
1.0
 70
     8
 71
     3
 72
    20
 73
    16
 74
     0
 42
0.00000001
 43
0.00000001
 12
1.0
 22
0.0
 32
0.0
 13
1.0
 23
0.0
 33
0.0
 40
0.0
 40
0.0
 40
0.0
 40
0.0
 40
0.1250000000000001
 40
0.1250000000000001
 40
0.2500000000000003
 40
0.2500000000000003
 40
0.3750000000000004
 40
0.3750000000000004
 40
0.5000000000000006
 40
0.5000000000000006
 40
0.6250000000000007
 40
0.6250000000000007
 40
0.7500000000000009
 40
0.7500000000000009
 40
1.0
 40
1.0
 40
1.0
 40
1.0
 10
0.9511024441920829
 20
-4.798158630057465
 30
0.0
 10
0.9490120078782932
 20
-4.744019045728182
 30
0.0
 10
0.9460053767151906
 20
-4.68956717428497
 30
0.0
 10
0.9223453885864857
 20
-4.584025120664625
 30
0.0
 10
0.9052814392502729
 20
-4.533312568471916
 30
0.0
 10
0.858237943678736
 20
-4.436967069662995
 30
0.0
 10
0.8286071443264004
 20
-4.390654815714131
 30
0.0
 10
0.7609860968245422
 20
-4.307393010349732
 30
0.0
 10
0.7222907673497576
 20
-4.270196528493667
 30
0.0
 10
0.6376584778942916
 20
-4.202377508345986
 30
0.0
 10
0.5915237450739542
 20
-4.174310758920422
 30
0.0
 10
0.4975762764854016
 20
-4.121257269013879
 30
0.0
 10
0.4504136460122537
 20
-4.095037463682522
 30
0.0
 10
0.3091803549337968
 20
-4.015964344599997
 30
0.0
 10
0.2150248275481595
 20
-3.963248931878312
 30
0.0
 10
0.1208693001625215
 20
-3.910533519156627
 30
0.0
  0
SPLINE
  5
112
330
1B
100
AcDbEntity
 67
     1
  8
0
  6
Continuous
 62
     7
370
    15
100
AcDbSpline
210
0.0
220
0.0
230
1.0
 70
    24
 71
     3
 72
    14
 73
    10
 74
     0
 42
0.00000001
 43
0.00000001
 12
1.0
 22
0.0
 32
0.0
 13
1.0
 23
0.0
 33
0.0
 40
0.0
 40
0.0
 40
0.0
 40
0.0
 40
0.1249999999999999
 40
0.1249999999999999
 40
0.2499999999999999
 40
0.2499999999999999
 40
0.5
 40
0.5
 40
1.0
 40
1.0
 40
1.0
 40
1.0
 10
0.615935510087616
 20
-3.958496513406661
 30
0.0
 10
0.6159355100876159
 20
-3.958496513406664
 30
0.0
 10
0.6044153297854011
 20
-3.957380415538305
 30
0.0
 10
0.5730522654755903
 20
-3.954341899794357
 30
0.0
 10
0.5536960659275176
 20
-3.952466632872452
 30
0.0
 10
0.4924128303597612
 20
-3.946529391719185
 30
0.0
 10
0.447278496592889
 20
-3.942156688134211
 30
0.0
 10
0.3099104551785055
 20
-3.928848200403864
 30
0.0
 10
0.2165026589547025
 20
-3.919798668233287
 30
0.0
 10
0.1208693001625236
 20
-3.910533519156628
 30
0.0
  0
SPLINE
  5
113
330
1B
100
AcDbEntity
 67
     1
  8
0
  6
Continuous
 62
     7
370
    15
100
AcDbSpline
210
0.0
220
0.0
230
1.0
 70
     8
 71
     3
 72
    18
 73
    14
 74
     0
 42
0.00000001
 43
0.00000001
 12
1.0
 22
0.0
 32
0.0
 13
1.0
 23
0.0
 33
0.0
 40
0.0
 40
0.0
 40
0.0
 40
0.0
 40
0.125
 40
0.125
 40
0.2499999999999999
 40
0.2499999999999999
 40
0.5000000000000006
 40
0.5000000000000006
 40
0.7500000000000011
 40
0.7500000000000011
 40
0.8750000000000006
 40
0.8750000000000006
 40
1.0
 40
1.0
 40
1.0
 40
1.0
 10
5.822964840613968
 20
2.904691844580869
 30
0.0
 10
5.821642332150502
 20
2.961261878767616
 30
0.0
 10
5.819799698416984
 20
3.01776870355789
 30
0.0
 10
5.804964289758114
 20
3.12942730708349
 30
0.0
 10
5.791348486433149
 20
3.184947988349698
 30
0.0
 10
5.739656565782377
 20
3.346661184054983
 30
0.0
 10
5.679409141147731
 20
3.446007023912194
 30
0.0
 10
5.517945452479446
 20
3.606009028895205
 30
0.0
 10
5.420721126854544
 20
3.66692319804257
 30
0.0
 10
5.266033230604954
 20
3.737346752684104
 30
0.0
 10
5.212461093393832
 20
3.756054724100349
 30
0.0
 10
5.106255397610689
 20
3.795696975760896
 30
0.0
 10
5.053152549719115
 20
3.815518101591167
 30
0.0
 10
5.000049701827544
 20
3.835339227421442
 30
0.0
  0
SPLINE
  5
114
330
1B
100
AcDbEntity
 67
     1
  8
0
  6
Continuous
 62
     7
370
    15
100
AcDbSpline
210
0.0
220
0.0
230
1.0
 70
    24
 71
     3
 72
    12
 73
     8
 74
     0
 42
0.00000001
 43
0.00000001
 12
1.0
 22
0.0
 32
0.0
 13
1.0
 23
0.0
 33
0.0
 40
0.0
 40
0.0
 40
0.0
 40
0.0
 40
0.2499999999999994
 40
0.2499999999999994
 40
0.4999999999999989
 40
0.4999999999999989
 40
1.0
 40
1.0
 40
1.0
 40
1.0
 10
5.279397048549156
 20
3.944548358388211
 30
0.0
 10
5.279397048549154
 20
3.944548358388211
 30
0.0
 10
5.267284608429388
 20
3.939813074252204
 30
0.0
 10
5.229291313660788
 20
3.924959828810865
 30
0.0
 10
5.204418502672704
 20
3.915235955988772
 30
0.0
 10
5.123587961167886
 20
3.883635751809595
 30
0.0
 10
5.06137507389098
 20
3.859314005302246
 30
0.0
 10
5.000049701827542
 20
3.835339227421443
 30
0.0
  0
SPLINE
  5
115
330
1B
100
AcDbEntity
 67
     1
  8
0
  6
Continuous
 62
     7
370
    15
100
AcDbSpline
210
0.0
220
0.0
230
1.0
 70
     8
 71
     3
 72
    18
 73
    14
 74
     0
 42
0.00000001
 43
0.00000001
 12
1.0
 22
0.0
 32
0.0
 13
1.0
 23
0.0
 33
0.0
 40
0.0
 40
0.0
 40
0.0
 40
0.0
 40
0.2500000000000001
 40
0.2500000000000001
 40
0.3750000000000002
 40
0.3750000000000002
 40
0.5000000000000002
 40
0.5000000000000002
 40
0.7500000000000001
 40
0.7500000000000001
 40
0.875
 40
0.875
 40
1.0
 40
1.0
 40
1.0
 40
1.0
 10
0.1208693001625217
 20
-3.910533519156627
 30
0.0
 10
0.2451031579646027
 20
-3.869744927888449
 30
0.0
 10
0.3693370157666837
 20
-3.828956336620269
 30
0.0
 10
0.5556878024698053
 20
-3.767773449718002
 30
0.0
 10
0.618797292042172
 20
-3.748765583813658
 30
0.0
 10
0.7360809446886415
 20
-3.693405363016645
 30
0.0
 10
0.7916802875559046
 20
-3.66052133033577
 30
0.0
 10
0.9457943653144208
 20
-3.540174358470769
 30
0.0
 10
1.028040775812953
 20
-3.433896565304138
 30
0.0
 10
1.106949985179076
 20
-3.256740197506288
 30
0.0
 10
1.126983187665443
 20
-3.193796695179117
 30
0.0
 10
1.151133055612449
 20
-3.066195480568068
 30
0.0
 10
1.154779733416344
 20
-3.001293922677457
 30
0.0
 10
1.156250555001608
 20
-2.936108141084015
 30
0.0
  0
SPLINE
  5
116
330
1B
100
AcDbEntity
 67
     1
  8
0
  6
Continuous
 62
     7
370
    15
100
AcDbSpline
210
0.0
220
0.0
230
1.0
 70
    24
 71
     3
 72
    10
 73
     6
 74
     0
 42
0.00000001
 43
0.00000001
 12
1.0
 22
0.0
 32
0.0
 13
1.0
 23
0.0
 33
0.0
 40
0.0
 40
0.0
 40
0.0
 40
0.0
 40
0.5
 40
0.5
 40
1.0
 40
1.0
 40
1.0
 40
1.0
 10
5.30503807419018
 20
2.896471435311288
 30
0.0
 10
5.30503807419018
 20
2.896471435311287
 30
0.0
 10
5.326727498201144
 20
2.896315685199447
 30
0.0
 10
5.400531154700785
 20
2.895785706729379
 30
0.0
 10
5.45301732667212
 20
2.895408807501874
 30
0.0
 10
5.505130390423604
 20
2.895034587536257
 30
0.0
  0
SPLINE
  5
117
330
1B
100
AcDbEntity
 67
     1
  8
0
  6
Continuous
 62
     7
370
    15
100
AcDbSpline
210
0.0
220
0.0
230
1.0
 70
     8
 71
     3
 72
    16
 73
    12
 74
     0
 42
0.00000001
 43
0.00000001
 12
1.0
 22
0.0
 32
0.0
 13
1.0
 23
0.0
 33
0.0
 40
0.0
 40
0.0
 40
0.0
 40
0.0
 40
0.1249999999999997
 40
0.1249999999999997
 40
0.2499999999999993
 40
0.2499999999999993
 40
0.4999999999999996
 40
0.4999999999999996
 40
0.7499999999999998
 40
0.7499999999999998
 40
1.0
 40
1.0
 40
1.0
 40
1.0
 10
5.505130390423451
 20
2.895034587536259
 30
0.0
 10
5.503008972086398
 20
2.839809950455337
 30
0.0
 10
5.497669179318946
 20
2.784669906308621
 30
0.0
 10
5.466202529042356
 20
2.680561744110552
 30
0.0
 10
5.442269751222205
 20
2.629989852172485
 30
0.0
 10
5.351600783874025
 20
2.494498772750152
 30
0.0
 10
5.2648469723498
 20
2.42227690586466
 30
0.0
 10
5.065549037425879
 20
2.328329103383899
 30
0.0
 10
4.958402688616779
 20
2.310650080376258
 30
0.0
 10
4.741559923475489
 20
2.288941172493094
 30
0.0
 10
4.632632643751394
 20
2.288655489272561
 30
0.0
 10
4.523788120795743
 20
2.287811578144916
 30
0.0
  0
SPLINE
  5
119
330
1B
100
AcDbEntity
 67
     1
  8
0
  6
Continuous
 62
     7
370
    15
100
AcDbSpline
210
0.0
220
0.0
230
1.0
 70
     8
 71
     3
 72
    12
 73
     8
 74
     0
 42
0.00000001
 43
0.00000001
 12
1.0
 22
0.0
 32
0.0
 13
1.0
 23
0.0
 33
0.0
 40
0.0
 40
0.0
 40
0.0
 40
0.0
 40
0.2500000000000003
 40
0.2500000000000003
 40
0.5000000000000006
 40
0.5000000000000006
 40
1.0
 40
1.0
 40
1.0
 40
1.0
 10
-1.156500387348283
 20
-4.768592667252815
 30
0.0
 10
-1.156500387348286
 20
-4.768592667252818
 30
0.0
 10
-1.145713965246591
 20
-4.777981647233841
 30
0.0
 10
-1.112450890337243
 20
-4.806792218785954
 30
0.0
 10
-1.090930534017359
 20
-4.825388184134625
 30
0.0
 10
-1.020865616453736
 20
-4.884340824091336
 30
0.0
 10
-0.9661629031180811
 20
-4.927671806747979
 30
0.0
 10
-0.9113053267320423
 20
-4.968592667252842
 30
0.0
  0
SPLINE
  5
11A
330
1B
100
AcDbEntity
 67
     1
  8
0
  6
Continuous
 62
     7
370
    15
100
AcDbSpline
210
0.0
220
0.0
230
1.0
 70
     8
 71
     3
 72
    12
 73
     8
 74
     0
 42
0.00000001
 43
0.00000001
 12
1.0
 22
0.0
 32
0.0
 13
1.0
 23
0.0
 33
0.0
 40
0.0
 40
0.0
 40
0.0
 40
0.0
 40
0.5000000000000029
 40
0.5000000000000029
 40
0.7500000000000014
 40
0.7500000000000014
 40
1.0
 40
1.0
 40
1.0
 40
1.0
 10
-0.9113053267320422
 20
-4.968592667252836
 30
0.0
 10
-0.8909664472422664
 20
-5.036763268307571
 30
0.0
 10
-0.8635178830958096
 20
-5.10282285869116
 30
0.0
 10
-0.8124963863909813
 20
-5.195610088085395
 30
0.0
 10
-0.7939237867569844
 20
-5.225590975350801
 30
0.0
 10
-0.7523493996513976
 20
-5.282869974438355
 30
0.0
 10
-0.7284465852240333
 20
-5.309604675216833
 30
0.0
 10
-0.7044585619038151
 20
-5.336057910673274
 30
0.0
  0
SPLINE
  5
11B
330
1B
100
AcDbEntity
 67
     1
  8
0
  6
Continuous
 62
     7
370
    15
100
AcDbSpline
210
0.0
220
0.0
230
1.0
 70
    24
 71
     3
 72
    10
 73
     6
 74
     0
 42
0.00000001
 43
0.00000001
 12
1.0
 22
0.0
 32
0.0
 13
1.0
 23
0.0
 33
0.0
 40
0.0
 40
0.0
 40
0.0
 40
0.0
 40
0.5
 40
0.5
 40
1.0
 40
1.0
 40
1.0
 40
1.0
 10
-4.654096541194437
 20
2.385253486593339
 30
0.0
 10
-4.654096541194435
 20
2.385253486593339
 30
0.0
 10
-4.653943841261442
 20
2.363545404837404
 30
0.0
 10
-4.653424461773918
 20
2.28970953499451
 30
0.0
 10
-4.653055062167333
 20
2.237195059671136
 30
0.0
 10
-4.65268846245763
 20
2.18507862247807
 30
0.0
  0
SPLINE
  5
11C
330
1B
100
AcDbEntity
 67
     1
  8
0
  6
Continuous
 62
     7
370
    15
100
AcDbSpline
210
0.0
220
0.0
230
1.0
 70
     8
 71
     3
 72
    16
 73
    12
 74
     0
 42
0.00000001
 43
0.00000001
 12
1.0
 22
0.0
 32
0.0
 13
1.0
 23
0.0
 33
0.0
 40
0.0
 40
0.0
 40
0.0
 40
0.0
 40
0.1250000000000002
 40
0.1250000000000002
 40
0.2500000000000003
 40
0.2500000000000003
 40
0.5000000000000002
 40
0.5000000000000002
 40
0.7500000000000001
 40
0.7500000000000001
 40
1.0
 40
1.0
 40
1.0
 40
1.0
 10
-4.652688462457641
 20
2.185078622478071
 30
0.0
 10
-4.699629643055624
 20
2.186738908687619
 30
0.0
 10
-4.74641358716332
 20
2.189449118479804
 30
0.0
 10
-4.838078391781662
 20
2.207577099424037
 30
0.0
 10
-4.883549793054201
 20
2.221983496574093
 30
0.0
 10
-5.011931307666889
 20
2.277283702651279
 30
0.0
 10
-5.088535543322751
 20
2.334541958914096
 30
0.0
 10
-5.217529280164406
 20
2.469684441929217
 30
0.0
 10
-5.270963909834115
 20
2.549297511626131
 30
0.0
 10
-5.347953874213914
 20
2.720568560023306
 30
0.0
 10
-5.373625256207456
 20
2.810259083820329
 30
0.0
 10
-5.389010569955943
 20
2.903202204542132
 30
0.0
  0
SPLINE
  5
11D
330
1B
100
AcDbEntity
 67
     1
  8
0
  6
Continuous
 62
     7
370
    15
100
AcDbSpline
210
0.0
220
0.0
230
1.0
 70
     8
 71
     3
 72
    10
 73
     6
 74
     0
 42
0.00000001
 43
0.00000001
 12
1.0
 22
0.0
 32
0.0
 13
1.0
 23
0.0
 33
0.0
 40
0.0
 40
0.0
 40
0.0
 40
0.0
 40
0.5
 40
0.5
 40
1.0
 40
1.0
 40
1.0
 40
1.0
 10
-5.207782438630334
 20
3.103202204542057
 30
0.0
 10
-5.207782438630344
 20
3.103202204542066
 30
0.0
 10
-5.236950356595213
 20
3.073109169909425
 30
0.0
 10
-5.308267265536626
 20
2.996472525211541
 30
0.0
 10
-5.349235261448852
 20
2.95007516894188
 30
0.0
 10
-5.389010569955943
 20
2.903202204542139
 30
0.0
  0
SPLINE
  5
11E
330
1B
100
AcDbEntity
 67
     1
  8
0
  6
Continuous
 62
     7
370
    15
100
AcDbSpline
210
0.0
220
0.0
230
1.0
 70
     8
 71
     3
 72
    16
 73
    12
 74
     0
 42
0.00000001
 43
0.00000001
 12
1.0
 22
0.0
 32
0.0
 13
1.0
 23
0.0
 33
0.0
 40
0.0
 40
0.0
 40
0.0
 40
0.0
 40
0.2499999999999995
 40
0.2499999999999995
 40
0.499999999999999
 40
0.499999999999999
 40
0.7499999999999984
 40
0.7499999999999984
 40
0.8749999999999991
 40
0.8749999999999991
 40
1.0
 40
1.0
 40
1.0
 40
1.0
 10
-0.1359875668354659
 20
-4.074965838905173
 30
0.0
 10
-0.0426562838188186
 20
-4.087205913454475
 30
0.0
 10
0.0502713975691485
 20
-4.105265287167575
 30
0.0
 10
0.2269633929872658
 20
-4.164860406526716
 30
0.0
 10
0.3116731313122815
 20
-4.209899246930401
 30
0.0
 10
0.4584283210074556
 20
-4.32612580012752
 30
0.0
 10
0.5214279019833071
 20
-4.398997761603746
 30
0.0
 10
0.5870548422132867
 20
-4.5231989013697
 30
0.0
 10
0.6046807596623095
 20
-4.567878103995758
 30
0.0
 10
0.6281278373751127
 20
-4.658364672851602
 30
0.0
 10
0.6315915925188749
 20
-4.705204691592476
 30
0.0
 10
0.6334540790161758
 20
-4.752354258462232
 30
0.0
  0
SPLINE
  5
11F
330
1B
100
AcDbEntity
 67
     1
  8
0
  6
Continuous
 62
     7
370
    15
100
AcDbSpline
210
0.0
220
0.0
230
1.0
 70
    24
 71
     3
 72
    10
 73
     6
 74
     0
 42
0.00000001
 43
0.00000001
 12
1.0
 22
0.0
 32
0.0
 13
1.0
 23
0.0
 33
0.0
 40
0.0
 40
0.0
 40
0.0
 40
0.0
 40
0.5000000000000002
 40
0.5000000000000002
 40
1.0
 40
1.0
 40
1.0
 40
1.0
 10
0.4332432023953087
 20
-4.75096446212461
 30
0.0
 10
0.4332432023953088
 20
-4.750964462124617
 30
0.0
 10
0.4549597181315658
 20
-4.751115210847895
 30
0.0
 10
0.5288104620292291
 20
-4.751627857788619
 30
0.0
 10
0.5813347628642112
 20
-4.751992463759091
 30
0.0
 10
0.6334540790161757
 20
-4.752354258462232
 30
0.0
  0
SPLINE
  5
120
330
1B
100
AcDbEntity
 67
     1
  8
0
  6
Continuous
 62
     7
370
    15
100
AcDbSpline
210
0.0
220
0.0
230
1.0
 70
     8
 71
     3
 72
    10
 73
     6
 74
     0
 42
0.00000001
 43
0.00000001
 12
1.0
 22
0.0
 32
0.0
 13
1.0
 23
0.0
 33
0.0
 40
0.0
 40
0.0
 40
0.0
 40
0.0
 40
0.5
 40
0.5
 40
1.0
 40
1.0
 40
1.0
 40
1.0
 10
-0.3359875668354617
 20
-4.255772154432302
 30
0.0
 10
-0.3359875668354588
 20
-4.255772154432305
 30
0.0
 10
-0.3056523328072141
 20
-4.227825581864844
 30
0.0
 10
-0.2282764868522444
 20
-4.157182336893232
 30
0.0
 10
-0.1822238751196081
 20
-4.115551698798629
 30
0.0
 10
-0.1359875668369923
 20
-4.074965838905174
 30
0.0
  0
SPLINE
  5
121
330
1B
100
AcDbEntity
 67
     1
  8
0
  6
Continuous
 62
     7
370
    15
100
AcDbSpline
210
0.0
220
0.0
230
1.0
 70
     8
 71
     3
 72
    14
 73
    10
 74
     0
 42
0.00000001
 43
0.00000001
 12
1.0
 22
0.0
 32
0.0
 13
1.0
 23
0.0
 33
0.0
 40
0.0
 40
0.0
 40
0.0
 40
0.0
 40
0.25
 40
0.25
 40
0.5
 40
0.5
 40
0.75
 40
0.75
 40
1.0
 40
1.0
 40
1.0
 40
1.0
 10
-0.8041656299785238
 20
-2.773720872381078
 30
0.0
 10
-0.7783916928103415
 20
-2.68533484070909
 30
0.0
 10
-0.7434969532753779
 20
-2.601025745924298
 30
0.0
 10
-0.6445924364087613
 20
-2.445421781068045
 30
0.0
 10
-0.5815117119346769
 20
-2.376233642992815
 30
0.0
 10
-0.4356911986008976
 20
-2.265940072793979
 30
0.0
 10
-0.3526412835972459
 20
-2.223812259306384
 30
0.0
 10
-0.177982541474846
 20
-2.170226434420192
 30
0.0
 10
-0.0860624437575558
 20
-2.162197358629206
 30
0.0
 10
0.0060066391843217
 20
-2.158263002999391
 30
0.0
  0
SPLINE
  5
122
330
1B
100
AcDbEntity
 67
     1
  8
0
  6
Continuous
 62
     7
370
    15
100
AcDbSpline
210
0.0
220
0.0
230
1.0
 70
    24
 71
     3
 72
    10
 73
     6
 74
     0
 42
0.00000001
 43
0.00000001
 12
1.0
 22
0.0
 32
0.0
 13
1.0
 23
0.0
 33
0.0
 40
0.0
 40
0.0
 40
0.0
 40
0.0
 40
0.5
 40
0.5
 40
1.0
 40
1.0
 40
1.0
 40
1.0
 10
0.0085637152158202
 20
-2.358336256996405
 30
0.0
 10
0.0085637152158188
 20
-2.358336256996405
 30
0.0
 10
0.0082865462142718
 20
-2.336649727787458
 30
0.0
 10
0.0073433723764641
 20
-2.262852994139221
 30
0.0
 10
0.0066726454889717
 20
-2.210373322340117
 30
0.0
 10
0.0060066391843199
 20
-2.158263002999322
 30
0.0
  0
SPLINE
  5
123
330
1B
100
AcDbEntity
 67
     1
  8
0
  6
Continuous
 62
     7
370
    15
100
AcDbSpline
210
0.0
220
0.0
230
1.0
 70
     8
 71
     3
 72
    10
 73
     6
 74
     0
 42
0.00000001
 43
0.00000001
 12
1.0
 22
0.0
 32
0.0
 13
1.0
 23
0.0
 33
0.0
 40
0.0
 40
0.0
 40
0.0
 40
0.0
 40
0.5
 40
0.5
 40
1.0
 40
1.0
 40
1.0
 40
1.0
 10
-0.6436798745277691
 20
-2.97372087238102
 30
0.0
 10
-0.6436798745277732
 20
-2.973720872381023
 30
0.0
 10
-0.6678424005832347
 20
-2.945044794437847
 30
0.0
 10
-0.7306978322417796
 20
-2.868582325261547
 30
0.0
 10
-0.7683585023386312
 20
-2.821416938727307
 30
0.0
 10
-0.8041656299785137
 20
-2.773720872381003
 30
0.0
  0
SPLINE
  5
124
330
1B
100
AcDbEntity
 67
     1
  8
0
  6
Continuous
 62
     7
370
    15
100
AcDbSpline
210
0.0
220
0.0
230
1.0
 70
     8
 71
     3
 72
    18
 73
    14
 74
     0
 42
0.00000001
 43
0.00000001
 12
1.0
 22
0.0
 32
0.0
 13
1.0
 23
0.0
 33
0.0
 40
0.0
 40
0.0
 40
0.0
 40
0.0
 40
0.1249999999999993
 40
0.1249999999999993
 40
0.2499999999999986
 40
0.2499999999999986
 40
0.4999999999999991
 40
0.4999999999999991
 40
0.7499999999999996
 40
0.7499999999999996
 40
0.8749999999999998
 40
0.8749999999999998
 40
1.0
 40
1.0
 40
1.0
 40
1.0
 10
4.572631007576627
 20
-2.158193418690716
 30
0.0
 10
4.626190763936876
 20
-2.160208584740867
 30
0.0
 10
4.679590595313031
 20
-2.163376614468983
 30
0.0
 10
4.784259784650449
 20
-2.185070783420775
 30
0.0
 10
4.835661337432973
 20
-2.20252238438323
 30
0.0
 10
4.980712468182509
 20
-2.268620109168374
 30
0.0
 10
5.06805168444482
 20
-2.335466333246913
 30
0.0
 10
5.21068173250598
 20
-2.496444914829014
 30
0.0
 10
5.266101598781193
 20
-2.589243009435519
 30
0.0
 10
5.317937824591029
 20
-2.741645238656305
 30
0.0
 10
5.330947544481167
 20
-2.793487154870554
 30
0.0
 10
5.347841477161832
 20
-2.899396610123969
 30
0.0
 10
5.350328361578782
 20
-2.953661741413768
 30
0.0
 10
5.351224618637643
 20
-3.007686877510406
 30
0.0
  0
SPLINE
  5
125
330
1B
100
AcDbEntity
 67
     1
  8
0
  6
Continuous
 62
     7
370
    15
100
AcDbSpline
210
0.0
220
0.0
230
1.0
 70
    24
 71
     3
 72
    10
 73
     6
 74
     0
 42
0.00000001
 43
0.00000001
 12
1.0
 22
0.0
 32
0.0
 13
1.0
 23
0.0
 33
0.0
 40
0.0
 40
0.0
 40
0.0
 40
0.0
 40
0.5
 40
0.5
 40
1.0
 40
1.0
 40
1.0
 40
1.0
 10
5.151191920344026
 20
-3.007374718534866
 30
0.0
 10
5.151191920344028
 20
-3.007374718534887
 30
0.0
 10
5.172870026731434
 20
-3.00740854808148
 30
0.0
 10
5.246657887969205
 20
-3.007523696971483
 30
0.0
 10
5.299099037973208
 20
-3.007605533470223
 30
0.0
 10
5.35122461863867
 20
-3.007686877510408
 30
0.0
  0
SPLINE
  5
126
330
1B
100
AcDbEntity
 67
     1
  8
0
  6
Continuous
 62
     7
370
    15
100
AcDbSpline
210
0.0
220
0.0
230
1.0
 70
    24
 71
     3
 72
    10
 73
     6
 74
     0
 42
0.00000001
 43
0.00000001
 12
1.0
 22
0.0
 32
0.0
 13
1.0
 23
0.0
 33
0.0
 40
0.0
 40
0.0
 40
0.0
 40
0.0
 40
0.5
 40
0.5
 40
1.0
 40
1.0
 40
1.0
 40
1.0
 10
4.572666279318384
 20
-2.358336256996405
 30
0.0
 10
4.572666279318381
 20
-2.358336256996405
 30
0.0
 10
4.572662455050676
 20
-2.336636172047859
 30
0.0
 10
4.572649445046882
 20
-2.26281336220927
 30
0.0
 10
4.572640192030887
 20
-2.210308870460981
 30
0.0
 10
4.572631007576627
 20
-2.158193418690671
 30
0.0
  0
SPLINE
  5
127
330
1B
100
AcDbEntity
 67
     1
  8
0
  6
Continuous
 62
     7
370
    15
100
AcDbSpline
210
0.0
220
0.0
230
1.0
 70
     8
 71
     3
 72
    18
 73
    14
 74
     0
 42
0.00000001
 43
0.00000001
 12
1.0
 22
0.0
 32
0.0
 13
1.0
 23
0.0
 33
0.0
 40
0.0
 40
0.0
 40
0.0
 40
0.0
 40
0.1250000000000002
 40
0.1250000000000002
 40
0.2500000000000005
 40
0.2500000000000005
 40
0.5000000000000007
 40
0.5000000000000007
 40
0.7500000000000008
 40
0.7500000000000008
 40
0.8750000000000004
 40
0.8750000000000004
 40
1.0
 40
1.0
 40
1.0
 40
1.0
 10
0.0060066391843217
 20
-2.158263002999391
 30
0.0
 10
0.0594291766829617
 20
-2.159179110772826
 30
0.0
 10
0.1128854285616561
 20
-2.161658125244863
 30
0.0
 10
0.2182893279399392
 20
-2.179337342722671
 30
0.0
 10
0.2694897963312221
 20
-2.192761497414334
 30
0.0
 10
0.4187193385664092
 20
-2.246382783462714
 30
0.0
 10
0.5108762485808019
 20
-2.304369537600244
 30
0.0
 10
0.6695253070174565
 20
-2.44858288722351
 30
0.0
 10
0.7331010810706081
 20
-2.535835853107385
 30
0.0
 10
0.7966522176426826
 20
-2.682207570127516
 30
0.0
 10
0.8127249889704518
 20
-2.732671041091391
 30
0.0
 10
0.8336213000407665
 20
-2.837280049500194
 30
0.0
 10
0.8376566826281477
 20
-2.890955983387134
 30
0.0
 10
0.8384208225244019
 20
-2.944507017714292
 30
0.0
  0
SPLINE
  5
128
330
1B
100
AcDbEntity
 67
     1
  8
0
  6
Continuous
 62
     7
370
    15
100
AcDbSpline
210
0.0
220
0.0
230
1.0
 70
     8
 71
     3
 72
    18
 73
    14
 74
     0
 42
0.00000001
 43
0.00000001
 12
1.0
 22
0.0
 32
0.0
 13
1.0
 23
0.0
 33
0.0
 40
0.0
 40
0.0
 40
0.0
 40
0.0
 40
0.1249999999999999
 40
0.1249999999999999
 40
0.2499999999999998
 40
0.2499999999999998
 40
0.4999999999999992
 40
0.4999999999999992
 40
0.7499999999999987
 40
0.7499999999999987
 40
0.8749999999999993
 40
0.8749999999999993
 40
1.0
 40
1.0
 40
1.0
 40
1.0
 10
5.351224618637644
 20
-3.007686877510406
 30
0.0
 10
5.350191325582406
 20
-3.06010706649239
 30
0.0
 10
5.347971715975788
 20
-3.11270442433788
 30
0.0
 10
5.332383254420052
 20
-3.21540135509187
 30
0.0
 10
5.320194572312301
 20
-3.265764127177102
 30
0.0
 10
5.2703627781079
 20
-3.4138768822727
 30
0.0
 10
5.218959280378241
 20
-3.505354986905155
 30
0.0
 10
5.081538671205275
 20
-3.663184420593773
 30
0.0
 10
4.997793796972675
 20
-3.72984719143255
 30
0.0
 10
4.85758568194226
 20
-3.797220722031861
 30
0.0
 10
4.807068766941826
 20
-3.81317002009194
 30
0.0
 10
4.70476524753206
 20
-3.835457366462901
 30
0.0
 10
4.652648057536968
 20
-3.839634013824758
 30
0.0
 10
4.600064639221949
 20
-3.840446125416884
 30
0.0
  0
SPLINE
  5
129
330
1B
100
AcDbEntity
 67
     1
  8
0
  6
Continuous
 62
     7
370
    15
100
AcDbSpline
210
0.0
220
0.0
230
1.0
 70
    24
 71
     3
 72
    10
 73
     6
 74
     0
 42
0.00000001
 43
0.00000001
 12
1.0
 22
0.0
 32
0.0
 13
1.0
 23
0.0
 33
0.0
 40
0.0
 40
0.0
 40
0.0
 40
0.0
 40
0.5
 40
0.5
 40
1.0
 40
1.0
 40
1.0
 40
1.0
 10
4.60231371521582
 20
-3.640387539047687
 30
0.0
 10
4.602313715215819
 20
-3.640387539047687
 30
0.0
 10
4.602069951330004
 20
-3.662070691834071
 30
0.0
 10
4.601240375568521
 20
-3.735862664440234
 30
0.0
 10
4.600650491214018
 20
-3.788333737182738
 30
0.0
 10
4.600064639221944
 20
-3.840446125417079
 30
0.0
  0
SPLINE
  5
12A
330
1B
100
AcDbEntity
 67
     1
  8
0
  6
Continuous
 62
     7
370
    15
100
AcDbSpline
210
0.0
220
0.0
230
1.0
 70
     8
 71
     3
 72
    12
 73
     8
 74
     0
 42
0.00000001
 43
0.00000001
 12
1.0
 22
0.0
 32
0.0
 13
1.0
 23
0.0
 33
0.0
 40
0.0
 40
0.0
 40
0.0
 40
0.0
 40
0.5000000000000011
 40
0.5000000000000011
 40
0.7500000000000006
 40
0.7500000000000006
 40
1.0
 40
1.0
 40
1.0
 40
1.0
 10
3.907584399689827
 20
-2.517310615970837
 30
0.0
 10
3.98043396519085
 20
-2.40727424684425
 30
0.0
 10
4.077427753427671
 20
-2.315312449031075
 30
0.0
 10
4.252012523567242
 20
-2.221732337529384
 30
0.0
 10
4.313155228293895
 20
-2.197460081360771
 30
0.0
 10
4.439933736342186
 20
-2.165716344161227
 30
0.0
 10
4.506511115205695
 20
-2.16070449351356
 30
0.0
 10
4.572631007576627
 20
-2.158193418690716
 30
0.0
  0
SPLINE
  5
12B
330
1B
100
AcDbEntity
 67
     1
  8
0
  6
Continuous
 62
     7
370
    15
100
AcDbSpline
210
0.0
220
0.0
230
1.0
 70
     8
 71
     3
 72
    10
 73
     6
 74
     0
 42
0.00000001
 43
0.00000001
 12
1.0
 22
0.0
 32
0.0
 13
1.0
 23
0.0
 33
0.0
 40
0.0
 40
0.0
 40
0.0
 40
0.0
 40
0.5
 40
0.5
 40
1.0
 40
1.0
 40
1.0
 40
1.0
 10
4.022986792138895
 20
-2.717310615970764
 30
0.0
 10
4.022986792138883
 20
-2.717310615970772
 30
0.0
 10
4.007485871346623
 20
-2.691761236271351
 30
0.0
 10
3.96265100406737
 20
-2.616103233514251
 30
0.0
 10
3.934173003348949
 20
-2.566745323505202
 30
0.0
 10
3.907584399689828
 20
-2.517310615970825
 30
0.0
  0
SPLINE
  5
12C
330
1B
100
AcDbEntity
 67
     1
  8
0
  6
Continuous
 62
     7
370
    15
100
AcDbSpline
210
0.0
220
0.0
230
1.0
 70
    24
 71
     3
 72
    10
 73
     6
 74
     0
 42
0.00000001
 43
0.00000001
 12
1.0
 22
0.0
 32
0.0
 13
1.0
 23
0.0
 33
0.0
 40
0.0
 40
0.0
 40
0.0
 40
0.0
 40
0.5
 40
0.5
 40
1.0
 40
1.0
 40
1.0
 40
1.0
 10
4.559044484446592
 20
3.308330409670262
 30
0.0
 10
4.559044484446591
 20
3.308330409670261
 30
0.0
 10
4.559166607289093
 20
3.330017397272451
 30
0.0
 10
4.55958229377449
 20
3.403836409914833
 30
0.0
 10
4.559876656586194
 20
3.456110354060124
 30
0.0
 10
4.560170715943094
 20
3.508330409670262
 30
0.0
  0
SPLINE
  5
12D
330
1B
100
AcDbEntity
 67
     1
  8
0
  6
Continuous
 62
     7
370
    15
100
AcDbSpline
210
0.0
220
0.0
230
1.0
 70
     8
 71
     3
 72
    16
 73
    12
 74
     0
 42
0.00000001
 43
0.00000001
 12
1.0
 22
0.0
 32
0.0
 13
1.0
 23
0.0
 33
0.0
 40
0.0
 40
0.0
 40
0.0
 40
0.0
 40
0.2500000000000004
 40
0.2500000000000004
 40
0.5000000000000009
 40
0.5000000000000009
 40
0.7500000000000013
 40
0.7500000000000013
 40
0.8750000000000007
 40
0.8750000000000007
 40
1.0
 40
1.0
 40
1.0
 40
1.0
 10
4.560170715943094
 20
3.508330409670262
 30
0.0
 10
4.667415955813248
 20
3.507122541698938
 30
0.0
 10
4.774871805452087
 20
3.504507806933248
 30
0.0
 10
4.987651333013589
 20
3.478128827571519
 30
0.0
 10
5.094969467253503
 20
3.4581316554759
 30
0.0
 10
5.289144330021838
 20
3.369203130478911
 30
0.0
 10
5.374264484943301
 20
3.297037763238149
 30
0.0
 10
5.455730088016946
 20
3.157455868297509
 30
0.0
 10
5.475254728335255
 20
3.107289266634144
 30
0.0
 10
5.500414958186668
 20
3.002374137137856
 30
0.0
 10
5.503837215288645
 20
2.948830599564352
 30
0.0
 10
5.505130390423451
 20
2.895034587536259
 30
0.0
  0
SPLINE
  5
12E
330
1B
100
AcDbEntity
 67
     1
  8
0
  6
Continuous
 62
     7
370
    15
100
AcDbSpline
210
0.0
220
0.0
230
1.0
 70
    24
 71
     3
 72
    10
 73
     6
 74
     0
 42
0.00000001
 43
0.00000001
 12
1.0
 22
0.0
 32
0.0
 13
1.0
 23
0.0
 33
0.0
 40
0.0
 40
0.0
 40
0.0
 40
0.0
 40
0.5
 40
0.5
 40
1.0
 40
1.0
 40
1.0
 40
1.0
 10
0.0293970485491547
 20
-5.127567026227173
 30
0.0
 10
0.0293970485491537
 20
-5.127567026227174
 30
0.0
 10
0.0292734245532139
 20
-5.149277501029168
 30
0.0
 10
0.028852961964007
 20
-5.223117877880483
 30
0.0
 10
0.028553915785311
 20
-5.275635469458217
 30
0.0
 10
0.0282571473406864
 20
-5.327753052212894
 30
0.0
  0
SPLINE
  5
12F
330
1B
100
AcDbEntity
 67
     1
  8
0
  6
Continuous
 62
     7
370
    15
100
AcDbSpline
210
0.0
220
0.0
230
1.0
 70
     8
 71
     3
 72
    14
 73
    10
 74
     0
 42
0.00000001
 43
0.00000001
 12
1.0
 22
0.0
 32
0.0
 13
1.0
 23
0.0
 33
0.0
 40
0.0
 40
0.0
 40
0.0
 40
0.0
 40
0.2500000000000002
 40
0.2500000000000002
 40
0.5000000000000003
 40
0.5000000000000003
 40
0.7500000000000002
 40
0.7500000000000002
 40
1.0
 40
1.0
 40
1.0
 40
1.0
 10
0.0282571473406665
 20
-5.327753052212893
 30
0.0
 10
-0.0330947145694511
 20
-5.324733189124657
 30
0.0
 10
-0.0946349273290865
 20
-5.319286142994005
 30
0.0
 10
-0.2127068619738506
 20
-5.285888369417409
 30
0.0
 10
-0.2684644372248751
 20
-5.260873763759833
 30
0.0
 10
-0.3717533055927466
 20
-5.197242373235166
 30
0.0
 10
-0.4206524319345218
 20
-5.1584704321898
 30
0.0
 10
-0.5047221081675628
 20
-5.070923268210908
 30
0.0
 10
-0.5404869667520829
 20
-5.022111723906693
 30
0.0
 10
-0.5703931062286199
 20
-4.968592667252837
 30
0.0
  0
SPLINE
  5
130
330
1B
100
AcDbEntity
 67
     1
  8
0
  6
Continuous
 62
     7
370
    15
100
AcDbSpline
210
0.0
220
0.0
230
1.0
 70
     8
 71
     3
 72
    10
 73
     6
 74
     0
 42
0.00000001
 43
0.00000001
 12
1.0
 22
0.0
 32
0.0
 13
1.0
 23
0.0
 33
0.0
 40
0.0
 40
0.0
 40
0.0
 40
0.0
 40
0.5
 40
0.5
 40
1.0
 40
1.0
 40
1.0
 40
1.0
 10
-0.4385516693995641
 20
-4.768592667252815
 30
0.0
 10
-0.438551669399562
 20
-4.768592667252816
 30
0.0
 10
-0.4577749262279975
 20
-4.795009714565255
 30
0.0
 10
-0.5100583703796613
 20
-4.870712768899476
 30
0.0
 10
-0.5413940304262744
 20
-4.919235542251535
 30
0.0
 10
-0.5703931062286196
 20
-4.968592667252852
 30
0.0
  0
SPLINE
  5
131
330
1B
100
AcDbEntity
 67
     1
  8
0
  6
Continuous
 62
     7
370
    15
100
AcDbSpline
210
0.0
220
0.0
230
1.0
 70
     8
 71
     3
 72
    18
 73
    14
 74
     0
 42
0.00000001
 43
0.00000001
 12
1.0
 22
0.0
 32
0.0
 13
1.0
 23
0.0
 33
0.0
 40
0.0
 40
0.0
 40
0.0
 40
0.0
 40
0.1250000000000001
 40
0.1250000000000001
 40
0.2500000000000001
 40
0.2500000000000001
 40
0.5000000000000002
 40
0.5000000000000002
 40
0.7500000000000003
 40
0.7500000000000003
 40
0.8750000000000001
 40
0.8750000000000001
 40
1.0
 40
1.0
 40
1.0
 40
1.0
 10
-3.930677332398717
 20
2.918406373680625
 30
0.0
 10
-3.932482528505871
 20
2.870289229557172
 30
0.0
 10
-3.93443473285277
 20
2.822185518648735
 30
0.0
 10
-3.95009956473432
 20
2.727052732468943
 30
0.0
 10
-3.96326166624051
 20
2.680793773272396
 30
0.0
 10
-4.014780532627353
 20
2.547468031319378
 30
0.0
 10
-4.067117705646665
 20
2.464775541523508
 30
0.0
 10
-4.202303591774183
 20
2.326921200754601
 30
0.0
 10
-4.282697598071741
 20
2.272160630321933
 30
0.0
 10
-4.415715134284302
 20
2.218843800500848
 30
0.0
 10
-4.46154212057404
 20
2.206041066317811
 30
0.0
 10
-4.556066085525577
 20
2.190021884046511
 30
0.0
 10
-4.604530056507773
 20
2.187460696143998
 30
0.0
 10
-4.652688462457641
 20
2.18507862247807
 30
0.0
  0
SPLINE
  5
134
330
1B
100
AcDbEntity
 67
     1
  8
0
  6
Continuous
 62
     7
370
    15
100
AcDbSpline
210
0.0
220
0.0
230
1.0
 70
    24
 71
     3
 72
    12
 73
     8
 74
     0
 42
0.00000001
 43
0.00000001
 12
1.0
 22
0.0
 32
0.0
 13
1.0
 23
0.0
 33
0.0
 40
0.0
 40
0.0
 40
0.0
 40
0.0
 40
0.2500000000000018
 40
0.2500000000000018
 40
0.5000000000000036
 40
0.5000000000000036
 40
1.0
 40
1.0
 40
1.0
 40
1.0
 10
4.409204740856848
 20
-4.319874718534866
 30
0.0
 10
4.409204740856839
 20
-4.319874718534873
 30
0.0
 10
4.392907440710638
 20
-4.302431028451733
 30
0.0
 10
4.352843153797849
 20
-4.259548526562493
 30
0.0
 10
4.328696407760785
 20
-4.233703242336978
 30
0.0
 10
4.254151849739783
 20
-4.153915047001624
 30
0.0
 10
4.200651666746719
 20
-4.096651536901855
 30
0.0
 10
4.147011910976854
 20
-4.039238636151786
 30
0.0
  0
SPLINE
  5
135
330
1B
100
AcDbEntity
 67
     1
  8
0
  6
Continuous
 62
     7
370
    15
100
AcDbSpline
210
0.0
220
0.0
230
1.0
 70
     8
 71
     3
 72
    12
 73
     8
 74
     0
 42
0.00000001
 43
0.00000001
 12
1.0
 22
0.0
 32
0.0
 13
1.0
 23
0.0
 33
0.0
 40
0.0
 40
0.0
 40
0.0
 40
0.0
 40
0.5000000000000018
 40
0.5000000000000018
 40
0.7500000000000009
 40
0.7500000000000009
 40
1.0
 40
1.0
 40
1.0
 40
1.0
 10
4.147011910976854
 20
-4.039238636151786
 30
0.0
 10
4.23129273455091
 20
-4.062711909520852
 30
0.0
 10
4.315573558124965
 20
-4.086185182889918
 30
0.0
 10
4.44199479348605
 20
-4.121395092943516
 30
0.0
 10
4.483767278992858
 20
-4.134474140068906
 30
0.0
 10
4.569436941504541
 20
-4.15288011601777
 30
0.0
 10
4.613197485746864
 20
-4.157158712204289
 30
0.0
 10
4.657037831618657
 20
-4.158278181881329
 30
0.0
  0
SPLINE
  5
136
330
1B
100
AcDbEntity
 67
     1
  8
0
  6
Continuous
 62
     7
370
    15
100
AcDbSpline
210
0.0
220
0.0
230
1.0
 70
     8
 71
     3
 72
    18
 73
    14
 74
     0
 42
0.00000001
 43
0.00000001
 12
1.0
 22
0.0
 32
0.0
 13
1.0
 23
0.0
 33
0.0
 40
0.0
 40
0.0
 40
0.0
 40
0.0
 40
0.1250000000000011
 40
0.1250000000000011
 40
0.2500000000000021
 40
0.2500000000000021
 40
0.5000000000000016
 40
0.5000000000000016
 40
0.7500000000000008
 40
0.7500000000000008
 40
0.8750000000000003
 40
0.8750000000000003
 40
1.0
 40
1.0
 40
1.0
 40
1.0
 10
0.6334540790161757
 20
-4.752354258462232
 30
0.0
 10
0.6313795228249203
 20
-4.791192747533433
 30
0.0
 10
0.6291349257962019
 20
-4.830002319301413
 30
0.0
 10
0.615212817162425
 20
-4.906017292597252
 30
0.0
 10
0.6039587598761781
 20
-4.943783978483041
 30
0.0
 10
0.5581435845056241
 20
-5.051206589034125
 30
0.0
 10
0.5118939114197971
 20
-5.115335720337271
 30
0.0
 10
0.3978481704341653
 20
-5.222539817932031
 30
0.0
 10
0.3307452439363059
 20
-5.263905896165546
 30
0.0
 10
0.2212178007855835
 20
-5.303589101312092
 30
0.0
 10
0.1837191423815412
 20
-5.313086623786428
 30
0.0
 10
0.1067559477480261
 20
-5.324670791541162
 30
0.0
 10
0.0673904464968993
 20
-5.326273342218991
 30
0.0
 10
0.0282571473406663
 20
-5.327753052212894
 30
0.0
  0
SPLINE
  5
137
330
1B
100
AcDbEntity
 67
     1
  8
0
  6
Continuous
 62
     7
370
    15
100
AcDbSpline
210
0.0
220
0.0
230
1.0
 70
     8
 71
     3
 72
    12
 73
     8
 74
     0
 42
0.00000001
 43
0.00000001
 12
1.0
 22
0.0
 32
0.0
 13
1.0
 23
0.0
 33
0.0
 40
0.0
 40
0.0
 40
0.0
 40
0.0
 40
0.250000000000001
 40
0.250000000000001
 40
0.500000000000002
 40
0.500000000000002
 40
1.0
 40
1.0
 40
1.0
 40
1.0
 10
4.600064639221949
 20
-3.840446125416884
 30
0.0
 10
4.550143229709802
 20
-3.838551885185137
 30
0.0
 10
4.500469758425893
 20
-3.834623798004671
 30
0.0
 10
4.402960475024481
 20
-3.811693233886184
 30
0.0
 10
4.355972821989697
 20
-3.795022593773669
 30
0.0
 10
4.220497636568206
 20
-3.731993813925838
 30
0.0
 10
4.138583789892015
 20
-3.673557629986185
 30
0.0
 10
4.065764010285548
 20
-3.604796224830658
 30
0.0
  0
SPLINE
  5
138
330
1B
100
AcDbEntity
 67
     1
  8
0
  6
Continuous
 62
     7
370
    15
100
AcDbSpline
210
0.0
220
0.0
230
1.0
 70
     8
 71
     3
 72
    10
 73
     6
 74
     0
 42
0.00000001
 43
0.00000001
 12
1.0
 22
0.0
 32
0.0
 13
1.0
 23
0.0
 33
0.0
 40
0.0
 40
0.0
 40
0.0
 40
0.0
 40
0.5
 40
0.5
 40
1.0
 40
1.0
 40
1.0
 40
1.0
 10
4.130358587010692
 20
-3.384778564688713
 30
0.0
 10
4.130358587010693
 20
-3.384778564688713
 30
0.0
 10
4.121702700040356
 20
-3.412817150070523
 30
0.0
 10
4.096510146924997
 20
-3.496283943449871
 30
0.0
 10
4.080463803414485
 20
-3.550828931757138
 30
0.0
 10
4.065764010285758
 20
-3.604796224831046
 30
0.0
  0
LINE
  5
1B6
330
1B
100
AcDbEntity
 67
     1
  8
0
  6
Continuous
 62
     7
370
    15
100
AcDbLine
 10
0.9973457665
 20
1.6673047686
 30
0.0
 11
0.9973457665
 21
4.282689384
 31
0.0
  0
LINE
  5
1B7
330
1B
100
AcDbEntity
 67
     1
  8
0
  6
Continuous
 62
     7
370
    15
100
AcDbLine
 10
0.9973457665
 20
4.282689384
 30
0.0
 11
1.3563201255
 21
4.282689384
 31
0.0
  0
LINE
  5
1B8
330
1B
100
AcDbEntity
 67
     1
  8
0
  6
Continuous
 62
     7
370
    15
100
AcDbLine
 10
1.3563201255
 20
4.282689384
 30
0.0
 11
1.3563201255
 21
4.9493560507
 31
0.0
  0
LINE
  5
1B9
330
1B
100
AcDbEntity
 67
     1
  8
0
  6
Continuous
 62
     7
370
    15
100
AcDbLine
 10
1.3563201255
 20
4.9493560507
 30
0.0
 11
0.9973457665
 21
4.9493560507
 31
0.0
  0
LINE
  5
1BA
330
1B
100
AcDbEntity
 67
     1
  8
0
  6
Continuous
 62
     7
370
    15
100
AcDbLine
 10
0.9973457665
 20
4.9493560507
 30
0.0
 11
0.9973457665
 21
5.7698688712
 31
0.0
  0
LINE
  5
1BB
330
1B
100
AcDbEntity
 67
     1
  8
0
  6
Continuous
 62
     7
370
    15
100
AcDbLine
 10
0.9973457665
 20
5.7698688712
 30
0.0
 11
0.2793970485
 21
5.7698688712
 31
0.0
  0
LINE
  5
1BC
330
1B
100
AcDbEntity
 67
     1
  8
0
  6
Continuous
 62
     7
370
    15
100
AcDbLine
 10
0.2793970485
 20
5.7698688712
 30
0.0
 11
0.2793970485
 21
4.9493560507
 31
0.0
  0
LINE
  5
1BD
330
1B
100
AcDbEntity
 67
     1
  8
0
  6
Continuous
 62
     7
370
    15
100
AcDbLine
 10
0.2793970485
 20
4.9493560507
 30
0.0
 11
-1.4129106438
 21
4.9493560507
 31
0.0
  0
LINE
  5
1BE
330
1B
100
AcDbEntity
 67
     1
  8
0
  6
Continuous
 62
     7
370
    15
100
AcDbLine
 10
-1.4129106438
 20
4.9493560507
 30
0.0
 11
-1.4129106438
 21
4.2225932302
 31
0.0
  0
LINE
  5
1BF
330
1B
100
AcDbEntity
 67
     1
  8
0
  6
Continuous
 62
     7
370
    15
100
AcDbLine
 10
-1.4129106438
 20
4.2225932302
 30
0.0
 11
0.2489483306
 21
1.6673047686
 31
0.0
  0
LINE
  5
1C0
330
1B
100
AcDbEntity
 67
     1
  8
0
  6
Continuous
 62
     7
370
    15
100
AcDbLine
 10
0.2489483306
 20
1.6673047686
 30
0.0
 11
0.9973457665
 21
1.6673047686
 31
0.0
  0
LINE
  5
1C1
330
1B
100
AcDbEntity
 67
     1
  8
0
  6
Continuous
 62
     7
370
    15
100
AcDbLine
 10
-4.1308593617
 20
-1.7429516416
 30
0.0
 11
-4.8488080797
 21
-1.7429516416
 31
0.0
  0
LINE
  5
1C2
330
1B
100
AcDbEntity
 67
     1
  8
0
  6
Continuous
 62
     7
370
    15
100
AcDbLine
 10
-4.8488080797
 20
-1.7429516416
 30
0.0
 11
-4.8488080797
 21
-5.0762849749
 31
0.0
  0
LINE
  5
1C3
330
1B
100
AcDbEntity
 67
     1
  8
0
  6
Continuous
 62
     7
370
    15
100
AcDbLine
 10
-4.8488080797
 20
-5.0762849749
 30
0.0
 11
-5.6693209002
 21
-5.0762849749
 31
0.0
  0
LINE
  5
1C4
330
1B
100
AcDbEntity
 67
     1
  8
0
  6
Continuous
 62
     7
370
    15
100
AcDbLine
 10
-5.6693209002
 20
-5.0762849749
 30
0.0
 11
-5.2406350027
 21
-5.7429516416
 31
0.0
  0
LINE
  5
1C5
330
1B
100
AcDbEntity
 67
     1
  8
0
  6
Continuous
 62
     7
370
    15
100
AcDbLine
 10
-5.2406350027
 20
-5.7429516416
 30
0.0
 11
-4.1308593617
 21
-5.7429516416
 31
0.0
  0
LINE
  5
1C6
330
1B
100
AcDbEntity
 67
     1
  8
0
  6
Continuous
 62
     7
370
    15
100
AcDbLine
 10
-1.3616285925
 20
-2.9737208724
 30
0.0
 11
-0.6436798745
 21
-2.9737208724
 31
0.0
  0
LINE
  5
1C7
330
1B
100
AcDbEntity
 67
     1
  8
0
  6
Continuous
 62
     7
370
    15
100
AcDbLine
 10
-0.4385516694
 20
-4.7685926673
 30
0.0
 11
-1.1565003873
 21
-4.7685926673
 31
0.0
  0
LINE
  5
1C8
330
1B
100
AcDbEntity
 67
     1
  8
0
  6
Continuous
 62
     7
370
    15
100
AcDbLine
 10
5.817858587
 20
-5.7429516416
 30
0.0
 11
5.817858587
 21
-5.0762849749
 31
0.0
  0
LINE
  5
1C9
330
1B
100
AcDbEntity
 67
     1
  8
0
  6
Continuous
 62
     7
370
    15
100
AcDbLine
 10
5.817858587
 20
-5.0762849749
 30
0.0
 11
4.5654547409
 21
-5.0762849749
 31
0.0
  0
LINE
  5
1CA
330
1B
100
AcDbEntity
 67
     1
  8
0
  6
Continuous
 62
     7
370
    15
100
AcDbLine
 10
4.5654547409
 20
-5.0762849749
 30
0.0
 11
4.4092047409
 21
-4.3198747185
 31
0.0
  0
LINE
  5
1CB
330
1B
100
AcDbEntity
 67
     1
  8
0
  6
Continuous
 62
     7
370
    15
100
AcDbLine
 10
3.9965444844
 20
-5.7429516416
 30
0.0
 11
5.817858587
 21
-5.7429516416
 31
0.0
  0
LINE
  5
1CC
330
1B
100
AcDbEntity
 67
     1
  8
0
  6
Continuous
 62
     7
370
    15
100
AcDbLine
 10
-4.2903144899
 20
4.6248368199
 30
0.0
 11
-4.7077824386
 21
5.1032022045
 31
0.0
  0
LINE
  5
1CD
330
1B
100
AcDbEntity
 67
     1
  8
0
  6
Continuous
 62
     7
370
    15
100
AcDbLine
 10
-4.7077824386
 20
5.1032022045
 30
0.0
 11
-3.3616285925
 21
5.1032022045
 31
0.0
  0
LINE
  5
1CE
330
1B
100
AcDbEntity
 67
     1
  8
0
  6
Continuous
 62
     7
370
    15
100
AcDbLine
 10
-3.3616285925
 20
5.1032022045
 30
0.0
 11
-3.3616285925
 21
5.7698688712
 31
0.0
  0
LINE
  5
1CF
330
1B
100
AcDbEntity
 67
     1
  8
0
  6
Continuous
 62
     7
370
    15
100
AcDbLine
 10
-3.3616285925
 20
5.7698688712
 30
0.0
 11
-6.0282952591
 21
5.7698688712
 31
0.0
  0
LINE
  5
1D0
330
1B
100
AcDbEntity
 67
     1
  8
0
  6
Continuous
 62
     7
370
    15
100
AcDbLine
 10
-6.0282952591
 20
5.7698688712
 30
0.0
 11
-6.0282952591
 21
5.4060868199
 31
0.0
  0
LINE
  5
1D1
330
1B
100
AcDbEntity
 67
     1
  8
0
  6
Continuous
 62
     7
370
    15
100
AcDbLine
 10
-6.0282952591
 20
5.4060868199
 30
0.0
 11
-4.8440003873
 21
4.1456701533
 31
0.0
  0
LINE
  5
1D2
330
1B
100
AcDbEntity
 67
     1
  8
0
  6
Continuous
 62
     7
370
    15
100
AcDbLine
 10
-5.2077824386
 20
3.1032022045
 30
0.0
 11
-5.9257311566
 21
3.1032022045
 31
0.0
  0
LINE
  5
1D3
330
1B
100
AcDbEntity
 67
     1
  8
0
  6
Continuous
 62
     7
370
    15
100
AcDbLine
 10
5.2793970485
 20
3.9445483584
 30
0.0
 11
6.2024739716
 21
5.7698688712
 31
0.0
  0
LINE
  5
1D4
330
1B
100
AcDbEntity
 67
     1
  8
0
  6
Continuous
 62
     7
370
    15
100
AcDbLine
 10
6.2024739716
 20
5.7698688712
 30
0.0
 11
5.4043970485
 21
5.7698688712
 31
0.0
  0
LINE
  5
1D5
330
1B
100
AcDbEntity
 67
     1
  8
0
  6
Continuous
 62
     7
370
    15
100
AcDbLine
 10
4.5229867921
 20
4.0262791276
 30
0.0
 11
4.2793970485
 21
4.0262791276
 31
0.0
  0
LINE
  5
1D6
330
1B
100
AcDbEntity
 67
     1
  8
0
  6
Continuous
 62
     7
370
    15
100
AcDbLine
 10
4.2793970485
 20
4.0262791276
 30
0.0
 11
4.2793970485
 21
5.7698688712
 31
0.0
  0
LINE
  5
1D7
330
1B
100
AcDbEntity
 67
     1
  8
0
  6
Continuous
 62
     7
370
    15
100
AcDbLine
 10
4.2793970485
 20
5.7698688712
 30
0.0
 11
3.5614483306
 21
5.7698688712
 31
0.0
  0
LINE
  5
1D8
330
1B
100
AcDbEntity
 67
     1
  8
0
  6
Continuous
 62
     7
370
    15
100
AcDbLine
 10
3.5614483306
 20
5.7698688712
 30
0.0
 11
3.5614483306
 21
1.7698688712
 31
0.0
  0
LINE
  5
1D9
330
1B
100
AcDbEntity
 67
     1
  8
0
  6
Continuous
 62
     7
370
    15
100
AcDbLine
 10
3.5614483306
 20
1.7698688712
 30
0.0
 11
4.3979867921
 21
1.7698688712
 31
0.0
  0
LINE
  5
1DA
330
1B
100
AcDbEntity
 67
     1
  8
0
  6
Continuous
 62
     7
370
    15
100
AcDbLine
 10
-0.3488080797
 20
-0.2933813365
 30
0.0
 11
-0.3488080797
 21
-1.0197275901
 31
0.0
  0
LINE
  5
1DB
330
1B
100
AcDbEntity
 67
     1
  8
0
  6
Continuous
 62
     7
370
    15
100
AcDbLine
 10
-0.3488080797
 20
-1.0197275901
 30
0.0
 11
0.4511919203
 21
-1.0197275901
 31
0.0
  0
LINE
  5
1DC
330
1B
100
AcDbEntity
 67
     1
  8
0
  6
Continuous
 62
     7
370
    15
100
AcDbLine
 10
0.4511919203
 20
-1.0197275901
 30
0.0
 11
0.4511919203
 21
-0.2933813365
 31
0.0
  0
LINE
  5
1DD
330
1B
100
AcDbEntity
 67
     1
  8
0
  6
Continuous
 62
     7
370
    15
100
AcDbLine
 10
0.4511919203
 20
-0.2933813365
 30
0.0
 11
4.1511919203
 21
-0.2933813365
 31
0.0
  0
LINE
  5
1DE
330
1B
100
AcDbEntity
 67
     1
  8
0
  6
Continuous
 62
     7
370
    15
100
AcDbLine
 10
4.1511919203
 20
-0.2933813365
 30
0.0
 11
4.1511919203
 21
-1.0197275901
 31
0.0
  0
LINE
  5
1DF
330
1B
100
AcDbEntity
 67
     1
  8
0
  6
Continuous
 62
     7
370
    15
100
AcDbLine
 10
4.1511919203
 20
-1.0197275901
 30
0.0
 11
4.9511919203
 21
-1.0197275901
 31
0.0
  0
LINE
  5
1E0
330
1B
100
AcDbEntity
 67
     1
  8
0
  6
Continuous
 62
     7
370
    15
100
AcDbLine
 10
4.9511919203
 20
-1.0197275901
 30
0.0
 11
4.9511919203
 21
1.0197275901
 31
0.0
  0
LINE
  5
1E1
330
1B
100
AcDbEntity
 67
     1
  8
0
  6
Continuous
 62
     7
370
    15
100
AcDbLine
 10
4.1511919203
 20
1.0197275901
 30
0.0
 11
4.9511919203
 21
1.0197275901
 31
0.0
  0
LINE
  5
1E2
330
1B
100
AcDbEntity
 67
     1
  8
0
  6
Continuous
 62
     7
370
    15
100
AcDbLine
 10
4.1511919203
 20
0.2933813365
 30
0.0
 11
4.1511919203
 21
1.0197275901
 31
0.0
  0
LINE
  5
1E3
330
1B
100
AcDbEntity
 67
     1
  8
0
  6
Continuous
 62
     7
370
    15
100
AcDbLine
 10
0.4511919203
 20
0.2933813365
 30
0.0
 11
4.1511919203
 21
0.2933813365
 31
0.0
  0
LINE
  5
1E4
330
1B
100
AcDbEntity
 67
     1
  8
0
  6
Continuous
 62
     7
370
    15
100
AcDbLine
 10
0.4511919203
 20
1.0197275901
 30
0.0
 11
0.4511919203
 21
0.2933813365
 31
0.0
  0
LINE
  5
1E5
330
1B
100
AcDbEntity
 67
     1
  8
0
  6
Continuous
 62
     7
370
    15
100
AcDbLine
 10
-0.3488080797
 20
1.0197275901
 30
0.0
 11
0.4511919203
 21
1.0197275901
 31
0.0
  0
LINE
  5
1E6
330
1B
100
AcDbEntity
 67
     1
  8
0
  6
Continuous
 62
     7
370
    15
100
AcDbLine
 10
-0.3488080797
 20
0.2933813365
 30
0.0
 11
-0.3488080797
 21
1.0197275901
 31
0.0
  0
LINE
  5
1E7
330
1B
100
AcDbEntity
 67
     1
  8
0
  6
Continuous
 62
     7
370
    15
100
AcDbLine
 10
-4.0488080797
 20
0.2933813365
 30
0.0
 11
-0.3488080797
 21
0.2933813365
 31
0.0
  0
LINE
  5
1E8
330
1B
100
AcDbEntity
 67
     1
  8
0
  6
Continuous
 62
     7
370
    15
100
AcDbLine
 10
-4.0488080797
 20
1.0197275901
 30
0.0
 11
-4.0488080797
 21
0.2933813365
 31
0.0
  0
LINE
  5
1E9
330
1B
100
AcDbEntity
 67
     1
  8
0
  6
Continuous
 62
     7
370
    15
100
AcDbLine
 10
-4.8488080797
 20
1.0197275901
 30
0.0
 11
-4.0488080797
 21
1.0197275901
 31
0.0
  0
LINE
  5
1EA
330
1B
100
AcDbEntity
 67
     1
  8
0
  6
Continuous
 62
     7
370
    15
100
AcDbLine
 10
-4.8488080797
 20
-1.0197275901
 30
0.0
 11
-4.8488080797
 21
1.0197275901
 31
0.0
  0
LINE
  5
1EB
330
1B
100
AcDbEntity
 67
     1
  8
0
  6
Continuous
 62
     7
370
    15
100
AcDbLine
 10
-4.8488080797
 20
-1.0197275901
 30
0.0
 11
-4.0488080797
 21
-1.0197275901
 31
0.0
  0
LINE
  5
1EC
330
1B
100
AcDbEntity
 67
     1
  8
0
  6
Continuous
 62
     7
370
    15
100
AcDbLine
 10
-4.0488080797
 20
-1.0197275901
 30
0.0
 11
-4.0488080797
 21
-0.2933813365
 31
0.0
  0
LINE
  5
1ED
330
1B
100
AcDbEntity
 67
     1
  8
0
  6
Continuous
 62
     7
370
    15
100
AcDbLine
 10
-4.0488080797
 20
-0.2933813365
 30
0.0
 11
-0.3488080797
 21
-0.2933813365
 31
0.0
  0
LINE
  5
1EE
330
1B
100
AcDbEntity
 67
     1
  8
0
  6
Continuous
 62
     7
370
    15
100
AcDbLine
 10
5.4043970485
 20
5.7698688712
 30
0.0
 11
4.5229867921
 21
4.0262791276
 31
0.0
  0
LINE
  5
1EF
330
1B
100
AcDbEntity
 67
     1
  8
0
  6
Continuous
 62
     7
370
    15
100
AcDbLine
 10
3.2024739716
 20
-2.717310616
 30
0.0
 11
4.0229867921
 21
-2.717310616
 31
0.0
  0
LINE
  5
1F0
330
1B
100
AcDbEntity
 67
     1
  8
0
  6
Continuous
 62
     7
370
    15
100
AcDbLine
 10
-4.1308593617
 20
-5.7429516416
 30
0.0
 11
-4.1308593617
 21
-1.7429516416
 31
0.0
  0
LINE
  5
1F1
330
1B
100
AcDbEntity
 67
     1
  8
0
  6
Continuous
 62
     7
370
    15
100
AcDbLine
 10
3.5261919203
 20
-3.5234003596
 30
0.0
 11
3.9965444844
 21
-5.7429516416
 31
0.0
  0
LINE
  5
1F2
330
1B
100
AcDbEntity
 67
     1
  8
0
  6
Continuous
 62
     7
370
    15
100
AcDbLine
 10
4.130358587
 20
-3.3847785647
 30
0.0
 11
3.5261919203
 21
-3.5234003596
 31
0.0
  0
LINE
  5
1F3
330
1B
100
AcDbEntity
 67
     1
  8
0
  6
Continuous
 62
     7
370
    15
100
AcDbLine
 10
-0.3359875668
 20
-3.5891054878
 30
0.0
 11
-0.3359875668
 21
-4.2557721544
 31
0.0
  0
LINE
  5
1F4
330
1B
100
AcDbEntity
 67
     1
  8
0
  6
Continuous
 62
     7
370
    15
100
AcDbLine
 10
0.2793970485
 20
2.9213111789
 30
0.0
 11
-0.6060196181
 21
4.282689384
 31
0.0
  0
LINE
  5
1F5
330
1B
100
AcDbEntity
 67
     1
  8
0
  6
Continuous
 62
     7
370
    15
100
AcDbLine
 10
0.2793970485
 20
4.282689384
 30
0.0
 11
0.2793970485
 21
2.9213111789
 31
0.0
  0
LINE
  5
1F6
330
1B
100
AcDbEntity
 67
     1
  8
0
  6
Continuous
 62
     7
370
    15
100
AcDbLine
 10
-0.6060196181
 20
4.282689384
 30
0.0
 11
0.2793970485
 21
4.282689384
 31
0.0
  0
LINE
  5
1F7
330
1B
100
AcDbEntity
 67
     1
  8
0
  6
Continuous
 62
     7
370
    15
100
AcDbLine
 10
4.5237880742
 20
2.4878175892
 30
0.0
 11
4.2793970485
 21
2.4878175892
 31
0.0
  0
LINE
  5
1F8
330
1B
100
AcDbEntity
 67
     1
  8
0
  6
Continuous
 62
     7
370
    15
100
AcDbLine
 10
4.2793970485
 20
3.3083304097
 30
0.0
 11
4.5590444844
 21
3.3083304097
 31
0.0
  0
LINE
  5
1F9
330
1B
100
AcDbEntity
 67
     1
  8
0
  6
Continuous
 62
     7
370
    15
100
AcDbLine
 10
4.2793970485
 20
2.4878175892
 30
0.0
 11
4.2793970485
 21
3.3083304097
 31
0.0
  0
LINE
  5
1FA
330
1B
100
AcDbEntity
 67
     1
  8
0
  6
Continuous
 62
     7
370
    15
100
AcDbLine
 10
-4.2903144899
 20
4.6248368199
 30
0.0
 11
-4.4410017712
 21
4.4933325093
 31
0.0
  0
LINE
  5
1FB
330
1B
100
AcDbEntity
 67
     1
  8
0
  6
Continuous
 62
     7
370
    15
100
AcDbLine
 10
4.3979867921
 20
1.7698688712
 30
0.0
 11
4.3972769114
 21
1.9698688712
 31
0.0
  0
LINE
  5
1FC
330
1B
100
AcDbEntity
 67
     1
  8
0
  6
Continuous
 62
     7
370
    15
100
AcDbLine
 10
-4.6977342542
 20
4.2820768144
 30
0.0
 11
-4.8440003873
 21
4.1456701533
 31
0.0
  0
LINE
  5
1FD
330
1B
100
AcDbEntity
 67
     1
  8
0
  6
Continuous
 62
     7
370
    15
100
AcDbLine
 10
4.5237881208
 20
2.2878115781
 30
0.0
 11
4.5237880742
 21
2.4878175892
 31
0.0
  0
LINE
  5
1FE
330
1B
100
AcDbEntity
 67
     1
  8
0
  6
Continuous
 62
     7
370
    15
100
AcDbLine
 10
4.5654547409
 20
-5.0762849749
 30
0.0
 11
4.4025458475
 21
-5.2762849749
 31
0.0
  0
LINE
  5
1FF
330
1B
100
AcDbEntity
 67
     1
  8
0
  6
Continuous
 62
     7
370
    15
100
AcDbLine
 10
4.4025458475
 20
-5.2762849749
 30
0.0
 11
4.147011911
 21
-4.0392386362
 31
0.0
  0
LINE
  5
200
330
1B
100
AcDbEntity
 67
     1
  8
0
  6
Continuous
 62
     7
370
    15
100
AcDbLine
 10
3.4746054617
 20
-2.517310616
 30
0.0
 11
3.9075843997
 21
-2.517310616
 31
0.0
  0
LINE
  5
201
330
1B
100
AcDbEntity
 67
     1
  8
0
  6
Continuous
 62
     7
370
    15
100
AcDbLine
 10
5.0000497018
 20
3.8353392274
 30
0.0
 11
5.8772130687
 21
5.5698688712
 31
0.0
  0
LINE
  5
202
330
1B
100
AcDbEntity
 67
     1
  8
0
  6
Continuous
 62
     7
370
    15
100
AcDbLine
 10
5.8772130687
 20
5.5698688712
 30
0.0
 11
6.2024739716
 21
5.7698688712
 31
0.0
  0
LINE
  5
203
330
1B
100
AcDbEntity
 67
     1
  8
0
  6
Continuous
 62
     7
370
    15
100
AcDbLine
 10
-0.5703931062
 20
-4.9685926673
 30
0.0
 11
-0.9113053267
 21
-4.9685926673
 31
0.0
  0
LINE
  5
204
330
1B
100
AcDbEntity
 67
     1
  8
0
  6
Continuous
 62
     7
370
    15
100
AcDbLine
 10
-1.1383004711
 20
-2.7737208724
 30
0.0
 11
-0.80416563
 21
-2.7737208724
 31
0.0
  0
LINE
  5
205
330
1B
100
AcDbEntity
 67
     1
  8
0
  6
Continuous
 62
     7
370
    15
100
AcDbLine
 10
-5.38901057
 20
2.9032022045
 30
0.0
 11
-5.7073640238
 21
2.9032022045
 31
0.0
  0
LINE
  5
206
330
1B
100
AcDbEntity
 67
     1
  8
0
  6
Continuous
 62
     7
370
    15
100
AcDbLine
 10
-0.1359875668
 20
-3.7785861177
 30
0.0
 11
-0.1359875668
 21
-4.0749658389
 31
0.0
  0
LINE
  5
207
330
1B
100
AcDbEntity
 67
     1
  8
0
  6
Continuous
 62
     7
370
    15
100
AcDbLine
 10
4.0657640103
 20
-3.6047962248
 30
0.0
 11
3.7626216025
 21
-3.6743501195
 31
0.0
  0
LINE
  5
208
330
1B
100
AcDbEntity
 67
     1
  8
0
  6
Continuous
 62
     7
370
    15
100
AcDbLine
 10
3.5261919203
 20
-3.5234003596
 30
0.0
 11
3.7626216025
 21
-3.6743501195
 31
0.0
  0
LINE
  5
209
330
1B
100
AcDbEntity
 67
     1
  8
0
  6
Continuous
 62
     7
370
    15
100
AcDbLine
 10
4.2793970485
 20
3.3083304097
 30
0.0
 11
4.0793970485
 21
3.5083304097
 31
0.0
  0
LINE
  5
20A
330
1B
100
AcDbEntity
 67
     1
  8
0
  6
Continuous
 62
     7
370
    15
100
AcDbLine
 10
4.0793970485
 20
3.5083304097
 30
0.0
 11
4.5601707159
 21
3.5083304097
 31
0.0
  0
LINE
  5
20B
330
1B
100
AcDbEntity
 67
     1
  8
0
  6
Continuous
 62
     7
370
    15
100
AcDbLine
 10
-3.5616285925
 20
5.3032022045
 30
0.0
 11
-3.5616285925
 21
5.5698688712
 31
0.0
  0
LINE
  5
20C
330
1B
100
AcDbEntity
 67
     1
  8
0
  6
Continuous
 62
     7
370
    15
100
AcDbLine
 10
-3.5616285925
 20
5.5698688712
 30
0.0
 11
-3.3616285925
 21
5.7698688712
 31
0.0
  0
LINE
  5
20D
330
1B
100
AcDbEntity
 67
     1
  8
0
  6
Continuous
 62
     7
370
    15
100
AcDbLine
 10
-3.5616285925
 20
5.3032022045
 30
0.0
 11
-3.3616285925
 21
5.1032022045
 31
0.0
  0
LINE
  5
20E
330
1B
100
AcDbEntity
 67
     1
  8
0
  6
Continuous
 62
     7
370
    15
100
AcDbLine
 10
-3.5616285925
 20
5.5698688712
 30
0.0
 11
-5.8282952591
 21
5.5698688712
 31
0.0
  0
LINE
  5
20F
330
1B
100
AcDbEntity
 67
     1
  8
0
  6
Continuous
 62
     7
370
    15
100
AcDbLine
 10
-5.8282952591
 20
5.5698688712
 30
0.0
 11
-6.0282952591
 21
5.7698688712
 31
0.0
  0
LINE
  5
210
330
1B
100
AcDbEntity
 67
     1
  8
0
  6
Continuous
 62
     7
370
    15
100
AcDbLine
 10
-5.8282952591
 20
5.5698688712
 30
0.0
 11
-5.8282952591
 21
5.4853058136
 31
0.0
  0
LINE
  5
211
330
1B
100
AcDbEntity
 67
     1
  8
0
  6
Continuous
 62
     7
370
    15
100
AcDbLine
 10
-5.8282952591
 20
5.4853058136
 30
0.0
 11
-6.0282952591
 21
5.4060868199
 31
0.0
  0
LINE
  5
212
330
1B
100
AcDbEntity
 67
     1
  8
0
  6
Continuous
 62
     7
370
    15
100
AcDbLine
 10
-4.7077824386
 20
5.1032022045
 30
0.0
 11
-5.1477723425
 21
5.3032022045
 31
0.0
  0
LINE
  5
213
330
1B
100
AcDbEntity
 67
     1
  8
0
  6
Continuous
 62
     7
370
    15
100
AcDbLine
 10
-5.1477723425
 20
5.3032022045
 30
0.0
 11
-3.5616285925
 21
5.3032022045
 31
0.0
  0
LINE
  5
214
330
1B
100
AcDbEntity
 67
     1
  8
0
  6
Continuous
 62
     7
370
    15
100
AcDbLine
 10
-5.8282952591
 20
5.4853058136
 30
0.0
 11
-4.6977342542
 21
4.2820768144
 31
0.0
  0
LINE
  5
215
330
1B
100
AcDbEntity
 67
     1
  8
0
  6
Continuous
 62
     7
370
    15
100
AcDbLine
 10
-4.4410017712
 20
4.4933325093
 30
0.0
 11
-5.1477723425
 21
5.3032022045
 31
0.0
  0
LINE
  5
216
330
1B
100
AcDbEntity
 67
     1
  8
0
  6
Continuous
 62
     7
370
    15
100
AcDbLine
 10
3.7626216025
 20
-3.6743501195
 30
0.0
 11
4.1586032247
 21
-5.5429516416
 31
0.0
  0
LINE
  5
217
330
1B
100
AcDbEntity
 67
     1
  8
0
  6
Continuous
 62
     7
370
    15
100
AcDbLine
 10
3.9965444844
 20
-5.7429516416
 30
0.0
 11
4.1586032247
 21
-5.5429516416
 31
0.0
  0
LINE
  5
218
330
1B
100
AcDbEntity
 67
     1
  8
0
  6
Continuous
 62
     7
370
    15
100
AcDbLine
 10
4.1586032247
 20
-5.5429516416
 30
0.0
 11
5.617858587
 21
-5.5429516416
 31
0.0
  0
LINE
  5
219
330
1B
100
AcDbEntity
 67
     1
  8
0
  6
Continuous
 62
     7
370
    15
100
AcDbLine
 10
5.817858587
 20
-5.7429516416
 30
0.0
 11
5.617858587
 21
-5.5429516416
 31
0.0
  0
LINE
  5
21A
330
1B
100
AcDbEntity
 67
     1
  8
0
  6
Continuous
 62
     7
370
    15
100
AcDbLine
 10
5.817858587
 20
-5.0762849749
 30
0.0
 11
5.617858587
 21
-5.2762849749
 31
0.0
  0
LINE
  5
21B
330
1B
100
AcDbEntity
 67
     1
  8
0
  6
Continuous
 62
     7
370
    15
100
AcDbLine
 10
5.617858587
 20
-5.2762849749
 30
0.0
 11
4.4025458475
 21
-5.2762849749
 31
0.0
  0
LINE
  5
21C
330
1B
100
AcDbEntity
 67
     1
  8
0
  6
Continuous
 62
     7
370
    15
100
AcDbLine
 10
5.617858587
 20
-5.5429516416
 30
0.0
 11
5.617858587
 21
-5.2762849749
 31
0.0
  0
LINE
  5
21D
330
1B
100
AcDbEntity
 67
     1
  8
0
  6
Continuous
 62
     7
370
    15
100
AcDbLine
 10
3.5614483306
 20
5.7698688712
 30
0.0
 11
3.7614483306
 21
5.5698688712
 31
0.0
  0
LINE
  5
21E
330
1B
100
AcDbEntity
 67
     1
  8
0
  6
Continuous
 62
     7
370
    15
100
AcDbLine
 10
3.7614483306
 20
5.5698688712
 30
0.0
 11
3.7614483306
 21
1.9698688712
 31
0.0
  0
LINE
  5
21F
330
1B
100
AcDbEntity
 67
     1
  8
0
  6
Continuous
 62
     7
370
    15
100
AcDbLine
 10
3.5614483306
 20
1.7698688712
 30
0.0
 11
3.7614483306
 21
1.9698688712
 31
0.0
  0
LINE
  5
220
330
1B
100
AcDbEntity
 67
     1
  8
0
  6
Continuous
 62
     7
370
    15
100
AcDbLine
 10
4.0793970485
 20
2.2878175892
 30
0.0
 11
4.0793970485
 21
3.5083304097
 31
0.0
  0
LINE
  5
221
330
1B
100
AcDbEntity
 67
     1
  8
0
  6
Continuous
 62
     7
370
    15
100
AcDbLine
 10
4.0793970485
 20
2.2878175892
 30
0.0
 11
4.2793970485
 21
2.4878175892
 31
0.0
  0
LINE
  5
222
330
1B
100
AcDbEntity
 67
     1
  8
0
  6
Continuous
 62
     7
370
    15
100
AcDbLine
 10
4.0793970485
 20
5.5698688712
 30
0.0
 11
3.7614483306
 21
5.5698688712
 31
0.0
  0
LINE
  5
223
330
1B
100
AcDbEntity
 67
     1
  8
0
  6
Continuous
 62
     7
370
    15
100
AcDbLine
 10
4.0793970485
 20
5.5698688712
 30
0.0
 11
4.2793970485
 21
5.7698688712
 31
0.0
  0
LINE
  5
224
330
1B
100
AcDbEntity
 67
     1
  8
0
  6
Continuous
 62
     7
370
    15
100
AcDbLine
 10
5.5273963267
 20
5.5698688712
 30
0.0
 11
4.6459860703
 21
3.8262791276
 31
0.0
  0
LINE
  5
225
330
1B
100
AcDbEntity
 67
     1
  8
0
  6
Continuous
 62
     7
370
    15
100
AcDbLine
 10
4.6459860703
 20
3.8262791276
 30
0.0
 11
4.5229867921
 21
4.0262791276
 31
0.0
  0
LINE
  5
226
330
1B
100
AcDbEntity
 67
     1
  8
0
  6
Continuous
 62
     7
370
    15
100
AcDbLine
 10
5.5273963267
 20
5.5698688712
 30
0.0
 11
5.4043970485
 21
5.7698688712
 31
0.0
  0
LINE
  5
227
330
1B
100
AcDbEntity
 67
     1
  8
0
  6
Continuous
 62
     7
370
    15
100
AcDbLine
 10
3.7614483306
 20
1.9698688712
 30
0.0
 11
4.3972769114
 21
1.9698688712
 31
0.0
  0
LINE
  5
228
330
1B
100
AcDbEntity
 67
     1
  8
0
  6
Continuous
 62
     7
370
    15
100
AcDbLine
 10
4.5237881208
 20
2.2878115781
 30
0.0
 11
4.0793970485
 21
2.2878175892
 31
0.0
  0
LINE
  5
229
330
1B
100
AcDbEntity
 67
     1
  8
0
  6
Continuous
 62
     7
370
    15
100
AcDbLine
 10
4.0793970485
 20
3.8262791276
 30
0.0
 11
4.0793970485
 21
5.5698688712
 31
0.0
  0
LINE
  5
22A
330
1B
100
AcDbEntity
 67
     1
  8
0
  6
Continuous
 62
     7
370
    15
100
AcDbLine
 10
4.0793970485
 20
3.8262791276
 30
0.0
 11
4.2793970485
 21
4.0262791276
 31
0.0
  0
LINE
  5
22B
330
1B
100
AcDbEntity
 67
     1
  8
0
  6
Continuous
 62
     7
370
    15
100
AcDbLine
 10
4.6459860703
 20
3.8262791276
 30
0.0
 11
4.0793970485
 21
3.8262791276
 31
0.0
  0
LINE
  5
22C
330
1B
100
AcDbEntity
 67
     1
  8
0
  6
Continuous
 62
     7
370
    15
100
AcDbLine
 10
5.8772130687
 20
5.5698688712
 30
0.0
 11
5.5273963267
 21
5.5698688712
 31
0.0
  0
LINE
  5
22D
330
1B
100
AcDbEntity
 67
     1
  8
0
  6
Continuous
 62
     7
370
    15
100
AcDbLine
 10
-5.2406350027
 20
-5.7429516416
 30
0.0
 11
-5.1314605291
 21
-5.5429516416
 31
0.0
  0
LINE
  5
22E
330
1B
100
AcDbEntity
 67
     1
  8
0
  6
Continuous
 62
     7
370
    15
100
AcDbLine
 10
-5.1314605291
 20
-5.5429516416
 30
0.0
 11
-4.3308593617
 21
-5.5429516416
 31
0.0
  0
LINE
  5
22F
330
1B
100
AcDbEntity
 67
     1
  8
0
  6
Continuous
 62
     7
370
    15
100
AcDbLine
 10
-4.1308593617
 20
-5.7429516416
 30
0.0
 11
-4.3308593617
 21
-5.5429516416
 31
0.0
  0
LINE
  5
230
330
1B
100
AcDbEntity
 67
     1
  8
0
  6
Continuous
 62
     7
370
    15
100
AcDbLine
 10
-5.6693209002
 20
-5.0762849749
 30
0.0
 11
-5.3029348881
 21
-5.2762849749
 31
0.0
  0
LINE
  5
231
330
1B
100
AcDbEntity
 67
     1
  8
0
  6
Continuous
 62
     7
370
    15
100
AcDbLine
 10
-5.3029348881
 20
-5.2762849749
 30
0.0
 11
-5.1314605291
 21
-5.5429516416
 31
0.0
  0
LINE
  5
232
330
1B
100
AcDbEntity
 67
     1
  8
0
  6
Continuous
 62
     7
370
    15
100
AcDbLine
 10
-1.4129106438
 20
4.2225932302
 30
0.0
 11
-1.2129106438
 21
4.2819088188
 31
0.0
  0
LINE
  5
233
330
1B
100
AcDbEntity
 67
     1
  8
0
  6
Continuous
 62
     7
370
    15
100
AcDbLine
 10
-1.2129106438
 20
4.2819088188
 30
0.0
 11
0.3574527303
 21
1.8673047686
 31
0.0
  0
LINE
  5
234
330
1B
100
AcDbEntity
 67
     1
  8
0
  6
Continuous
 62
     7
370
    15
100
AcDbLine
 10
0.2489483306
 20
1.6673047686
 30
0.0
 11
0.3574527303
 21
1.8673047686
 31
0.0
  0
LINE
  5
235
330
1B
100
AcDbEntity
 67
     1
  8
0
  6
Continuous
 62
     7
370
    15
100
AcDbLine
 10
-4.6488080797
 20
-0.8197275901
 30
0.0
 11
-4.2488080797
 21
-0.8197275901
 31
0.0
  0
LINE
  5
236
330
1B
100
AcDbEntity
 67
     1
  8
0
  6
Continuous
 62
     7
370
    15
100
AcDbLine
 10
-4.0488080797
 20
-1.0197275901
 30
0.0
 11
-4.2488080797
 21
-0.8197275901
 31
0.0
  0
LINE
  5
237
330
1B
100
AcDbEntity
 67
     1
  8
0
  6
Continuous
 62
     7
370
    15
100
AcDbLine
 10
-4.6488080797
 20
-0.8197275901
 30
0.0
 11
-4.8488080797
 21
-1.0197275901
 31
0.0
  0
LINE
  5
238
330
1B
100
AcDbEntity
 67
     1
  8
0
  6
Continuous
 62
     7
370
    15
100
AcDbLine
 10
0.4793970485
 20
2.2469712866
 30
0.0
 11
-0.9746750513
 21
4.482689384
 31
0.0
  0
LINE
  5
239
330
1B
100
AcDbEntity
 67
     1
  8
0
  6
Continuous
 62
     7
370
    15
100
AcDbLine
 10
-0.6060196181
 20
4.282689384
 30
0.0
 11
-0.9746750513
 21
4.482689384
 31
0.0
  0
LINE
  5
23A
330
1B
100
AcDbEntity
 67
     1
  8
0
  6
Continuous
 62
     7
370
    15
100
AcDbLine
 10
0.4793970485
 20
2.2469712866
 30
0.0
 11
0.2793970485
 21
2.9213111789
 31
0.0
  0
LINE
  5
23B
330
1B
100
AcDbEntity
 67
     1
  8
0
  6
Continuous
 62
     7
370
    15
100
AcDbLine
 10
1.3563201255
 20
4.9493560507
 30
0.0
 11
1.1563201255
 21
4.7493560507
 31
0.0
  0
LINE
  5
23C
330
1B
100
AcDbEntity
 67
     1
  8
0
  6
Continuous
 62
     7
370
    15
100
AcDbLine
 10
1.1563201255
 20
4.7493560507
 30
0.0
 11
0.7973457665
 21
4.7493560507
 31
0.0
  0
LINE
  5
23D
330
1B
100
AcDbEntity
 67
     1
  8
0
  6
Continuous
 62
     7
370
    15
100
AcDbLine
 10
0.7973457665
 20
4.7493560507
 30
0.0
 11
0.9973457665
 21
4.9493560507
 31
0.0
  0
LINE
  5
23E
330
1B
100
AcDbEntity
 67
     1
  8
0
  6
Continuous
 62
     7
370
    15
100
AcDbLine
 10
-4.6488080797
 20
-5.2762849749
 30
0.0
 11
-5.3029348881
 21
-5.2762849749
 31
0.0
  0
LINE
  5
23F
330
1B
100
AcDbEntity
 67
     1
  8
0
  6
Continuous
 62
     7
370
    15
100
AcDbLine
 10
-4.6488080797
 20
-5.2762849749
 30
0.0
 11
-4.8488080797
 21
-5.0762849749
 31
0.0
  0
LINE
  5
240
330
1B
100
AcDbEntity
 67
     1
  8
0
  6
Continuous
 62
     7
370
    15
100
AcDbLine
 10
-4.3308593617
 20
-5.5429516416
 30
0.0
 11
-4.3308593617
 21
-1.9429516416
 31
0.0
  0
LINE
  5
241
330
1B
100
AcDbEntity
 67
     1
  8
0
  6
Continuous
 62
     7
370
    15
100
AcDbLine
 10
-4.3308593617
 20
-1.9429516416
 30
0.0
 11
-4.1308593617
 21
-1.7429516416
 31
0.0
  0
LINE
  5
242
330
1B
100
AcDbEntity
 67
     1
  8
0
  6
Continuous
 62
     7
370
    15
100
AcDbLine
 10
-4.3308593617
 20
-1.9429516416
 30
0.0
 11
-4.6488080797
 21
-1.9429516416
 31
0.0
  0
LINE
  5
243
330
1B
100
AcDbEntity
 67
     1
  8
0
  6
Continuous
 62
     7
370
    15
100
AcDbLine
 10
-4.6488080797
 20
-1.9429516416
 30
0.0
 11
-4.8488080797
 21
-1.7429516416
 31
0.0
  0
LINE
  5
244
330
1B
100
AcDbEntity
 67
     1
  8
0
  6
Continuous
 62
     7
370
    15
100
AcDbLine
 10
0.7973457665
 20
5.5698688712
 30
0.0
 11
0.4793970485
 21
5.5698688712
 31
0.0
  0
LINE
  5
245
330
1B
100
AcDbEntity
 67
     1
  8
0
  6
Continuous
 62
     7
370
    15
100
AcDbLine
 10
0.4793970485
 20
5.5698688712
 30
0.0
 11
0.2793970485
 21
5.7698688712
 31
0.0
  0
LINE
  5
246
330
1B
100
AcDbEntity
 67
     1
  8
0
  6
Continuous
 62
     7
370
    15
100
AcDbLine
 10
0.7973457665
 20
5.5698688712
 30
0.0
 11
0.9973457665
 21
5.7698688712
 31
0.0
  0
LINE
  5
247
330
1B
100
AcDbEntity
 67
     1
  8
0
  6
Continuous
 62
     7
370
    15
100
AcDbLine
 10
-4.6488080797
 20
-1.9429516416
 30
0.0
 11
-4.6488080797
 21
-5.2762849749
 31
0.0
  0
LINE
  5
248
330
1B
100
AcDbEntity
 67
     1
  8
0
  6
Continuous
 62
     7
370
    15
100
AcDbLine
 10
0.4793970485
 20
5.5698688712
 30
0.0
 11
0.4793970485
 21
4.7493560507
 31
0.0
  0
LINE
  5
249
330
1B
100
AcDbEntity
 67
     1
  8
0
  6
Continuous
 62
     7
370
    15
100
AcDbLine
 10
0.4793970485
 20
4.7493560507
 30
0.0
 11
0.2793970485
 21
4.9493560507
 31
0.0
  0
LINE
  5
24A
330
1B
100
AcDbEntity
 67
     1
  8
0
  6
Continuous
 62
     7
370
    15
100
AcDbLine
 10
-0.1488080797
 20
0.8197275901
 30
0.0
 11
-0.1488080797
 21
0.0933813365
 31
0.0
  0
LINE
  5
24B
330
1B
100
AcDbEntity
 67
     1
  8
0
  6
Continuous
 62
     7
370
    15
100
AcDbLine
 10
-0.1488080797
 20
0.0933813365
 30
0.0
 11
-0.3488080797
 21
0.2933813365
 31
0.0
  0
LINE
  5
24C
330
1B
100
AcDbEntity
 67
     1
  8
0
  6
Continuous
 62
     7
370
    15
100
AcDbLine
 10
-0.1488080797
 20
0.8197275901
 30
0.0
 11
-0.3488080797
 21
1.0197275901
 31
0.0
  0
LINE
  5
24D
330
1B
100
AcDbEntity
 67
     1
  8
0
  6
Continuous
 62
     7
370
    15
100
AcDbLine
 10
0.4793970485
 20
4.7493560507
 30
0.0
 11
-1.2129106438
 21
4.7493560507
 31
0.0
  0
LINE
  5
24E
330
1B
100
AcDbEntity
 67
     1
  8
0
  6
Continuous
 62
     7
370
    15
100
AcDbLine
 10
-1.2129106438
 20
4.7493560507
 30
0.0
 11
-1.4129106438
 21
4.9493560507
 31
0.0
  0
LINE
  5
24F
330
1B
100
AcDbEntity
 67
     1
  8
0
  6
Continuous
 62
     7
370
    15
100
AcDbLine
 10
-0.1488080797
 20
0.0933813365
 30
0.0
 11
-4.2488080797
 21
0.0933813365
 31
0.0
  0
LINE
  5
250
330
1B
100
AcDbEntity
 67
     1
  8
0
  6
Continuous
 62
     7
370
    15
100
AcDbLine
 10
-4.2488080797
 20
0.0933813365
 30
0.0
 11
-4.0488080797
 21
0.2933813365
 31
0.0
  0
LINE
  5
251
330
1B
100
AcDbEntity
 67
     1
  8
0
  6
Continuous
 62
     7
370
    15
100
AcDbLine
 10
-1.2129106438
 20
4.7493560507
 30
0.0
 11
-1.2129106438
 21
4.2819088188
 31
0.0
  0
LINE
  5
252
330
1B
100
AcDbEntity
 67
     1
  8
0
  6
Continuous
 62
     7
370
    15
100
AcDbLine
 10
-0.9746750513
 20
4.482689384
 30
0.0
 11
0.4793970485
 21
4.482689384
 31
0.0
  0
LINE
  5
253
330
1B
100
AcDbEntity
 67
     1
  8
0
  6
Continuous
 62
     7
370
    15
100
AcDbLine
 10
0.2793970485
 20
4.282689384
 30
0.0
 11
0.4793970485
 21
4.482689384
 31
0.0
  0
LINE
  5
254
330
1B
100
AcDbEntity
 67
     1
  8
0
  6
Continuous
 62
     7
370
    15
100
AcDbLine
 10
-0.3488080797
 20
-0.2933813365
 30
0.0
 11
-0.1488080797
 21
-0.0933813365
 31
0.0
  0
LINE
  5
255
330
1B
100
AcDbEntity
 67
     1
  8
0
  6
Continuous
 62
     7
370
    15
100
AcDbLine
 10
-0.1488080797
 20
-0.0933813365
 30
0.0
 11
-0.1488080797
 21
-0.8197275901
 31
0.0
  0
LINE
  5
256
330
1B
100
AcDbEntity
 67
     1
  8
0
  6
Continuous
 62
     7
370
    15
100
AcDbLine
 10
-0.3488080797
 20
-1.0197275901
 30
0.0
 11
-0.1488080797
 21
-0.8197275901
 31
0.0
  0
LINE
  5
257
330
1B
100
AcDbEntity
 67
     1
  8
0
  6
Continuous
 62
     7
370
    15
100
AcDbLine
 10
4.9511919203
 20
-1.0197275901
 30
0.0
 11
4.7511919203
 21
-0.8197275901
 31
0.0
  0
LINE
  5
258
330
1B
100
AcDbEntity
 67
     1
  8
0
  6
Continuous
 62
     7
370
    15
100
AcDbLine
 10
4.7511919203
 20
-0.8197275901
 30
0.0
 11
4.7511919203
 21
0.8197275901
 31
0.0
  0
LINE
  5
259
330
1B
100
AcDbEntity
 67
     1
  8
0
  6
Continuous
 62
     7
370
    15
100
AcDbLine
 10
4.9511919203
 20
1.0197275901
 30
0.0
 11
4.7511919203
 21
0.8197275901
 31
0.0
  0
LINE
  5
25A
330
1B
100
AcDbEntity
 67
     1
  8
0
  6
Continuous
 62
     7
370
    15
100
AcDbLine
 10
1.3563201255
 20
4.282689384
 30
0.0
 11
1.1563201255
 21
4.482689384
 31
0.0
  0
LINE
  5
25B
330
1B
100
AcDbEntity
 67
     1
  8
0
  6
Continuous
 62
     7
370
    15
100
AcDbLine
 10
1.1563201255
 20
4.482689384
 30
0.0
 11
1.1563201255
 21
4.7493560507
 31
0.0
  0
LINE
  5
25C
330
1B
100
AcDbEntity
 67
     1
  8
0
  6
Continuous
 62
     7
370
    15
100
AcDbLine
 10
0.7973457665
 20
4.7493560507
 30
0.0
 11
0.7973457665
 21
5.5698688712
 31
0.0
  0
LINE
  5
25D
330
1B
100
AcDbEntity
 67
     1
  8
0
  6
Continuous
 62
     7
370
    15
100
AcDbLine
 10
0.9973457665
 20
4.282689384
 30
0.0
 11
0.7973457665
 21
4.482689384
 31
0.0
  0
LINE
  5
25E
330
1B
100
AcDbEntity
 67
     1
  8
0
  6
Continuous
 62
     7
370
    15
100
AcDbLine
 10
0.7973457665
 20
4.482689384
 30
0.0
 11
1.1563201255
 21
4.482689384
 31
0.0
  0
LINE
  5
25F
330
1B
100
AcDbEntity
 67
     1
  8
0
  6
Continuous
 62
     7
370
    15
100
AcDbLine
 10
4.1511919203
 20
-0.2933813365
 30
0.0
 11
4.3511919203
 21
-0.0933813365
 31
0.0
  0
LINE
  5
260
330
1B
100
AcDbEntity
 67
     1
  8
0
  6
Continuous
 62
     7
370
    15
100
AcDbLine
 10
4.3511919203
 20
-0.0933813365
 30
0.0
 11
4.3511919203
 21
-0.8197275901
 31
0.0
  0
LINE
  5
261
330
1B
100
AcDbEntity
 67
     1
  8
0
  6
Continuous
 62
     7
370
    15
100
AcDbLine
 10
4.1511919203
 20
-1.0197275901
 30
0.0
 11
4.3511919203
 21
-0.8197275901
 31
0.0
  0
LINE
  5
262
330
1B
100
AcDbEntity
 67
     1
  8
0
  6
Continuous
 62
     7
370
    15
100
AcDbLine
 10
0.9973457665
 20
1.6673047686
 30
0.0
 11
0.7973457665
 21
1.8673047686
 31
0.0
  0
LINE
  5
263
330
1B
100
AcDbEntity
 67
     1
  8
0
  6
Continuous
 62
     7
370
    15
100
AcDbLine
 10
0.7973457665
 20
1.8673047686
 30
0.0
 11
0.7973457665
 21
4.482689384
 31
0.0
  0
LINE
  5
264
330
1B
100
AcDbEntity
 67
     1
  8
0
  6
Continuous
 62
     7
370
    15
100
AcDbLine
 10
0.4511919203
 20
-0.2933813365
 30
0.0
 11
0.2511919203
 21
-0.0933813365
 31
0.0
  0
LINE
  5
265
330
1B
100
AcDbEntity
 67
     1
  8
0
  6
Continuous
 62
     7
370
    15
100
AcDbLine
 10
0.2511919203
 20
-0.0933813365
 30
0.0
 11
4.3511919203
 21
-0.0933813365
 31
0.0
  0
LINE
  5
266
330
1B
100
AcDbEntity
 67
     1
  8
0
  6
Continuous
 62
     7
370
    15
100
AcDbLine
 10
0.3574527303
 20
1.8673047686
 30
0.0
 11
0.7973457665
 21
1.8673047686
 31
0.0
  0
LINE
  5
267
330
1B
100
AcDbEntity
 67
     1
  8
0
  6
Continuous
 62
     7
370
    15
100
AcDbLine
 10
0.4511919203
 20
-1.0197275901
 30
0.0
 11
0.2511919203
 21
-0.8197275901
 31
0.0
  0
LINE
  5
268
330
1B
100
AcDbEntity
 67
     1
  8
0
  6
Continuous
 62
     7
370
    15
100
AcDbLine
 10
0.2511919203
 20
-0.8197275901
 30
0.0
 11
0.2511919203
 21
-0.0933813365
 31
0.0
  0
LINE
  5
269
330
1B
100
AcDbEntity
 67
     1
  8
0
  6
Continuous
 62
     7
370
    15
100
AcDbLine
 10
4.3511919203
 20
-0.8197275901
 30
0.0
 11
4.7511919203
 21
-0.8197275901
 31
0.0
  0
LINE
  5
26A
330
1B
100
AcDbEntity
 67
     1
  8
0
  6
Continuous
 62
     7
370
    15
100
AcDbLine
 10
0.4793970485
 20
4.482689384
 30
0.0
 11
0.4793970485
 21
2.2469712866
 31
0.0
  0
LINE
  5
26B
330
1B
100
AcDbEntity
 67
     1
  8
0
  6
Continuous
 62
     7
370
    15
100
AcDbLine
 10
4.7511919203
 20
0.8197275901
 30
0.0
 11
4.3511919203
 21
0.8197275901
 31
0.0
  0
LINE
  5
26C
330
1B
100
AcDbEntity
 67
     1
  8
0
  6
Continuous
 62
     7
370
    15
100
AcDbLine
 10
4.3511919203
 20
0.8197275901
 30
0.0
 11
4.1511919203
 21
1.0197275901
 31
0.0
  0
LINE
  5
26D
330
1B
100
AcDbEntity
 67
     1
  8
0
  6
Continuous
 62
     7
370
    15
100
AcDbLine
 10
4.3511919203
 20
0.8197275901
 30
0.0
 11
4.3511919203
 21
0.0933813365
 31
0.0
  0
LINE
  5
26E
330
1B
100
AcDbEntity
 67
     1
  8
0
  6
Continuous
 62
     7
370
    15
100
AcDbLine
 10
4.3511919203
 20
0.0933813365
 30
0.0
 11
4.1511919203
 21
0.2933813365
 31
0.0
  0
LINE
  5
26F
330
1B
100
AcDbEntity
 67
     1
  8
0
  6
Continuous
 62
     7
370
    15
100
AcDbLine
 10
-4.2488080797
 20
0.8197275901
 30
0.0
 11
-4.6488080797
 21
0.8197275901
 31
0.0
  0
LINE
  5
270
330
1B
100
AcDbEntity
 67
     1
  8
0
  6
Continuous
 62
     7
370
    15
100
AcDbLine
 10
-4.6488080797
 20
0.8197275901
 30
0.0
 11
-4.8488080797
 21
1.0197275901
 31
0.0
  0
LINE
  5
271
330
1B
100
AcDbEntity
 67
     1
  8
0
  6
Continuous
 62
     7
370
    15
100
AcDbLine
 10
-4.2488080797
 20
0.8197275901
 30
0.0
 11
-4.0488080797
 21
1.0197275901
 31
0.0
  0
LINE
  5
272
330
1B
100
AcDbEntity
 67
     1
  8
0
  6
Continuous
 62
     7
370
    15
100
AcDbLine
 10
4.3511919203
 20
0.0933813365
 30
0.0
 11
0.2511919203
 21
0.0933813365
 31
0.0
  0
LINE
  5
273
330
1B
100
AcDbEntity
 67
     1
  8
0
  6
Continuous
 62
     7
370
    15
100
AcDbLine
 10
0.2511919203
 20
0.0933813365
 30
0.0
 11
0.4511919203
 21
0.2933813365
 31
0.0
  0
LINE
  5
274
330
1B
100
AcDbEntity
 67
     1
  8
0
  6
Continuous
 62
     7
370
    15
100
AcDbLine
 10
-4.0488080797
 20
-0.2933813365
 30
0.0
 11
-4.2488080797
 21
-0.0933813365
 31
0.0
  0
LINE
  5
275
330
1B
100
AcDbEntity
 67
     1
  8
0
  6
Continuous
 62
     7
370
    15
100
AcDbLine
 10
-4.2488080797
 20
-0.0933813365
 30
0.0
 11
-0.1488080797
 21
-0.0933813365
 31
0.0
  0
LINE
  5
276
330
1B
100
AcDbEntity
 67
     1
  8
0
  6
Continuous
 62
     7
370
    15
100
AcDbLine
 10
0.2511919203
 20
0.0933813365
 30
0.0
 11
0.2511919203
 21
0.8197275901
 31
0.0
  0
LINE
  5
277
330
1B
100
AcDbEntity
 67
     1
  8
0
  6
Continuous
 62
     7
370
    15
100
AcDbLine
 10
0.2511919203
 20
0.8197275901
 30
0.0
 11
0.4511919203
 21
1.0197275901
 31
0.0
  0
LINE
  5
278
330
1B
100
AcDbEntity
 67
     1
  8
0
  6
Continuous
 62
     7
370
    15
100
AcDbLine
 10
-0.1488080797
 20
-0.8197275901
 30
0.0
 11
0.2511919203
 21
-0.8197275901
 31
0.0
  0
LINE
  5
279
330
1B
100
AcDbEntity
 67
     1
  8
0
  6
Continuous
 62
     7
370
    15
100
AcDbLine
 10
0.2511919203
 20
0.8197275901
 30
0.0
 11
-0.1488080797
 21
0.8197275901
 31
0.0
  0
LINE
  5
27A
330
1B
100
AcDbEntity
 67
     1
  8
0
  6
Continuous
 62
     7
370
    15
100
AcDbLine
 10
-4.6488080797
 20
0.8197275901
 30
0.0
 11
-4.6488080797
 21
-0.8197275901
 31
0.0
  0
LINE
  5
27B
330
1B
100
AcDbEntity
 67
     1
  8
0
  6
Continuous
 62
     7
370
    15
100
AcDbLine
 10
-4.2488080797
 20
-0.8197275901
 30
0.0
 11
-4.2488080797
 21
-0.0933813365
 31
0.0
  0
LINE
  5
27C
330
1B
100
AcDbEntity
 67
     1
  8
0
  6
Continuous
 62
     7
370
    15
100
AcDbLine
 10
-4.2488080797
 20
0.0933813365
 30
0.0
 11
-4.2488080797
 21
0.8197275901
 31
0.0
  0
VIEWPORT
  5
3C8
330
1B
100
AcDbEntity
 67
     1
  8
0
100
AcDbViewport
 10
0.0
 20
0.0
 30
0.0
 40
243.84
 41
204.216
 68
     1
 69
     1
 12
0.3073651616
 22
-6.9066422729
 13
0.0
 23
0.0
 14
10.0
 24
10.0
 15
10.0
 25
10.0
 16
0.0
 26
0.0
 36
1.0
 17
0.0
 27
0.0
 37
0.0
 42
50.0
 43
0.0
 44
0.0
 45
28.0300657814
 50
0.0
 51
0.0
 72
   100
 90
   557152
  1

281
     0
 71
     1
 74
     0
110
0.0
120
0.0
130
0.0
111
1.0
121
0.0
131
0.0
112
0.0
122
1.0
132
0.0
 79
     0
146
0.0
  0
ENDSEC
  0
SECTION
  2
OBJECTS
  0
DICTIONARY
  5
C
330
0
100
AcDbDictionary
281
     1
  3
ACAD_GROUP
350
D
  3
ACAD_LAYOUT
350
1A
  3
ACAD_MLINESTYLE
350
17
  3
ACAD_PLOTSETTINGS
350
19
  3
ACAD_PLOTSTYLENAME
350
E
  3
ACAD_SCALELIST
350
3C9
  3
AcDbVariableDictionary
350
3F3
  0
DICTIONARY
  5
D
102
{ACAD_REACTORS
330
C
102
}
330
C
100
AcDbDictionary
281
     1
  0
DICTIONARY
  5
1A
102
{ACAD_REACTORS
330
C
102
}
330
C
100
AcDbDictionary
281
     1
  3
_Back
350
29D
  3
_Bottom
350
1E
  3
_Dimetric
350
398
  3
_Front
350
2C8
  3
_Isometric
350
335
  3
_Left
350
26
  3
_Right
350
2F2
  3
_Top
350
315
  3
_Trimetric
350
367
  3
Model
350
22
  0
DICTIONARY
  5
17
102
{ACAD_REACTORS
330
C
102
}
330
C
100
AcDbDictionary
281
     1
  3
Standard
350
18
  0
DICTIONARY
  5
19
102
{ACAD_REACTORS
330
C
102
}
330
C
100
AcDbDictionary
281
     1
  0
ACDBDICTIONARYWDFLT
  5
E
102
{ACAD_REACTORS
330
C
102
}
330
C
100
AcDbDictionary
281
     1
  3
Normal
350
F
100
AcDbDictionaryWithDefault
340
F
  0
DICTIONARY
  5
3C9
102
{ACAD_REACTORS
330
C
102
}
330
C
100
AcDbDictionary
281
     1
  3
A0
350
3CA
  3
A1
350
3CB
  3
A2
350
3CC
  3
A3
350
3CD
  3
A4
350
3CE
  3
A5
350
3CF
  3
A6
350
3D0
  3
A7
350
3D1
  3
A8
350
3D2
  3
A9
350
3D3
  3
B0
350
3D4
  3
B1
350
3D5
  3
B2
350
3D6
  3
B3
350
3D7
  3
B4
350
3D8
  3
B5
350
3D9
  3
B6
350
3DA
  3
B7
350
3DB
  3
B8
350
3DC
  3
B9
350
3DD
  3
C0
350
3DE
  3
C1
350
3DF
  3
C2
350
3E0
  3
C3
350
3E1
  3
C4
350
3E2
  3
C5
350
3E3
  3
C6
350
3E4
  3
C7
350
3E5
  3
C8
350
3E6
  3
C9
350
3E7
  3
D0
350
3E8
  3
D1
350
3E9
  3
D2
350
3EA
  0
DICTIONARY
  5
3F3
102
{ACAD_REACTORS
330
C
102
}
330
C
100
AcDbDictionary
281
     1
  3
CANNOSCALE
350
3F4
  0
LAYOUT
  5
29D
102
{ACAD_REACTORS
330
1A
102
}
330
1A
100
AcDbPlotSettings
  1

  2
none_device
  4

  6

 40
0.0
 41
0.0
 42
0.0
 43
0.0
 44
0.0
 45
0.0
 46
0.0
 47
0.0
 48
0.0
 49
0.0
140
0.0
141
0.0
142
1.0
143
1.0
 70
   688
 72
     0
 73
     0
 74
     5
  7

 75
    16
147
1.0
148
0.0
149
0.0
100
AcDbLayout
  1
_Back
 70
     1
 71
     3
 10
0.0
 20
0.0
 11
0.0
 21
0.0
 12
0.0
 22
0.0
 32
0.0
 14
0.0
 24
0.0
 34
0.0
 15
0.0
 25
0.0
 35
0.0
146
0.0
 13
0.0
 23
0.0
 33
0.0
 16
1.0
 26
0.0
 36
0.0
 17
0.0
 27
1.0
 37
0.0
 76
     0
330
29C
331
3EC
  0
LAYOUT
  5
1E
102
{ACAD_REACTORS
330
1A
102
}
330
1A
100
AcDbPlotSettings
  1

  2
none_device
  4
ANSI_A_(11.00_x_8.50_Inches)
  6

 40
6.35
 41
19.05
 42
6.35000508
 43
19.05000254
 44
279.4
 45
215.9
 46
130.9593335114
 47
142.6193617284
 48
0.0
 49
0.0
140
0.0
141
0.0
142
0.3062176189
143
1.0
 70
  1696
 72
     0
 73
     0
 74
     5
  7

 75
    16
147
1.0
148
0.0
149
0.0
100
AcDbLayout
  1
_Bottom
 70
     1
 71
     1
 10
0.0
 20
0.0
 11
420.0
 21
297.0
 12
0.0
 22
0.0
 32
0.0
 14
-9.751493061
 24
-20.6468705971
 34
0.0
 15
10.3662233841
 25
6.8335860513
 35
0.0
146
0.0
 13
0.0
 23
0.0
 33
0.0
 16
1.0
 26
0.0
 36
0.0
 17
0.0
 27
1.0
 37
0.0
 76
     0
330
1B
331
3C8
  0
LAYOUT
  5
398
102
{ACAD_REACTORS
330
1A
102
}
330
1A
100
AcDbPlotSettings
  1

  2
none_device
  4

  6

 40
0.0
 41
0.0
 42
0.0
 43
0.0
 44
0.0
 45
0.0
 46
0.0
 47
0.0
 48
0.0
 49
0.0
140
0.0
141
0.0
142
1.0
143
1.0
 70
   688
 72
     0
 73
     0
 74
     5
  7

 75
    16
147
1.0
148
0.0
149
0.0
100
AcDbLayout
  1
_Dimetric
 70
     1
 71
     9
 10
0.0
 20
0.0
 11
0.0
 21
0.0
 12
0.0
 22
0.0
 32
0.0
 14
0.0
 24
0.0
 34
0.0
 15
0.0
 25
0.0
 35
0.0
146
0.0
 13
0.0
 23
0.0
 33
0.0
 16
1.0
 26
0.0
 36
0.0
 17
0.0
 27
1.0
 37
0.0
 76
     0
330
397
331
3F2
  0
LAYOUT
  5
2C8
102
{ACAD_REACTORS
330
1A
102
}
330
1A
100
AcDbPlotSettings
  1

  2
none_device
  4

  6

 40
0.0
 41
0.0
 42
0.0
 43
0.0
 44
0.0
 45
0.0
 46
0.0
 47
0.0
 48
0.0
 49
0.0
140
0.0
141
0.0
142
1.0
143
1.0
 70
   688
 72
     0
 73
     0
 74
     5
  7

 75
    16
147
1.0
148
0.0
149
0.0
100
AcDbLayout
  1
_Front
 70
     1
 71
     4
 10
0.0
 20
0.0
 11
0.0
 21
0.0
 12
0.0
 22
0.0
 32
0.0
 14
0.0
 24
0.0
 34
0.0
 15
0.0
 25
0.0
 35
0.0
146
0.0
 13
0.0
 23
0.0
 33
0.0
 16
1.0
 26
0.0
 36
0.0
 17
0.0
 27
1.0
 37
0.0
 76
     0
330
2C7
331
3ED
  0
LAYOUT
  5
335
102
{ACAD_REACTORS
330
1A
102
}
330
1A
100
AcDbPlotSettings
  1

  2
none_device
  4

  6

 40
0.0
 41
0.0
 42
0.0
 43
0.0
 44
0.0
 45
0.0
 46
0.0
 47
0.0
 48
0.0
 49
0.0
140
0.0
141
0.0
142
1.0
143
1.0
 70
   688
 72
     0
 73
     0
 74
     5
  7

 75
    16
147
1.0
148
0.0
149
0.0
100
AcDbLayout
  1
_Isometric
 70
     1
 71
     7
 10
0.0
 20
0.0
 11
0.0
 21
0.0
 12
0.0
 22
0.0
 32
0.0
 14
0.0
 24
0.0
 34
0.0
 15
0.0
 25
0.0
 35
0.0
146
0.0
 13
0.0
 23
0.0
 33
0.0
 16
1.0
 26
0.0
 36
0.0
 17
0.0
 27
1.0
 37
0.0
 76
     0
330
334
331
3F0
  0
LAYOUT
  5
26
102
{ACAD_REACTORS
330
1A
102
}
330
1A
100
AcDbPlotSettings
  1

  2
none_device
  4

  6

 40
0.0
 41
0.0
 42
0.0
 43
0.0
 44
0.0
 45
0.0
 46
0.0
 47
0.0
 48
0.0
 49
0.0
140
0.0
141
0.0
142
1.0
143
1.0
 70
   688
 72
     0
 73
     0
 74
     5
  7

 75
    16
147
1.0
148
0.0
149
0.0
100
AcDbLayout
  1
_Left
 70
     1
 71
     2
 10
0.0
 20
0.0
 11
0.0
 21
0.0
 12
0.0
 22
0.0
 32
0.0
 14
0.0
 24
0.0
 34
0.0
 15
0.0
 25
0.0
 35
0.0
146
0.0
 13
0.0
 23
0.0
 33
0.0
 16
1.0
 26
0.0
 36
0.0
 17
0.0
 27
1.0
 37
0.0
 76
     0
330
23
331
3EB
  0
LAYOUT
  5
2F2
102
{ACAD_REACTORS
330
1A
102
}
330
1A
100
AcDbPlotSettings
  1

  2
none_device
  4

  6

 40
0.0
 41
0.0
 42
0.0
 43
0.0
 44
0.0
 45
0.0
 46
0.0
 47
0.0
 48
0.0
 49
0.0
140
0.0
141
0.0
142
1.0
143
1.0
 70
   688
 72
     0
 73
     0
 74
     5
  7

 75
    16
147
1.0
148
0.0
149
0.0
100
AcDbLayout
  1
_Right
 70
     1
 71
     5
 10
0.0
 20
0.0
 11
0.0
 21
0.0
 12
0.0
 22
0.0
 32
0.0
 14
0.0
 24
0.0
 34
0.0
 15
0.0
 25
0.0
 35
0.0
146
0.0
 13
0.0
 23
0.0
 33
0.0
 16
1.0
 26
0.0
 36
0.0
 17
0.0
 27
1.0
 37
0.0
 76
     0
330
2F1
331
3EE
  0
LAYOUT
  5
315
102
{ACAD_REACTORS
330
1A
102
}
330
1A
100
AcDbPlotSettings
  1

  2
none_device
  4

  6

 40
0.0
 41
0.0
 42
0.0
 43
0.0
 44
0.0
 45
0.0
 46
0.0
 47
0.0
 48
0.0
 49
0.0
140
0.0
141
0.0
142
1.0
143
1.0
 70
   688
 72
     0
 73
     0
 74
     5
  7

 75
    16
147
1.0
148
0.0
149
0.0
100
AcDbLayout
  1
_Top
 70
     1
 71
     6
 10
0.0
 20
0.0
 11
0.0
 21
0.0
 12
0.0
 22
0.0
 32
0.0
 14
0.0
 24
0.0
 34
0.0
 15
0.0
 25
0.0
 35
0.0
146
0.0
 13
0.0
 23
0.0
 33
0.0
 16
1.0
 26
0.0
 36
0.0
 17
0.0
 27
1.0
 37
0.0
 76
     0
330
314
331
3EF
  0
LAYOUT
  5
367
102
{ACAD_REACTORS
330
1A
102
}
330
1A
100
AcDbPlotSettings
  1

  2
none_device
  4

  6

 40
0.0
 41
0.0
 42
0.0
 43
0.0
 44
0.0
 45
0.0
 46
0.0
 47
0.0
 48
0.0
 49
0.0
140
0.0
141
0.0
142
1.0
143
1.0
 70
   688
 72
     0
 73
     0
 74
     5
  7

 75
    16
147
1.0
148
0.0
149
0.0
100
AcDbLayout
  1
_Trimetric
 70
     1
 71
     8
 10
0.0
 20
0.0
 11
0.0
 21
0.0
 12
0.0
 22
0.0
 32
0.0
 14
0.0
 24
0.0
 34
0.0
 15
0.0
 25
0.0
 35
0.0
146
0.0
 13
0.0
 23
0.0
 33
0.0
 16
1.0
 26
0.0
 36
0.0
 17
0.0
 27
1.0
 37
0.0
 76
     0
330
366
331
3F1
  0
LAYOUT
  5
22
102
{ACAD_REACTORS
330
1A
102
}
330
1A
100
AcDbPlotSettings
  1

  2
none_device
  4

  6

 40
0.0
 41
0.0
 42
0.0
 43
0.0
 44
0.0
 45
0.0
 46
0.0
 47
0.0
 48
0.0
 49
0.0
140
0.0
141
0.0
142
1.0
143
1.0
 70
  1712
 72
     0
 73
     0
 74
     0
  7

 75
     0
147
1.0
148
0.0
149
0.0
100
AcDbLayout
  1
Model
 70
     1
 71
     0
 10
0.0
 20
0.0
 11
420.0
 21
297.0
 12
0.0
 22
0.0
 32
0.0
 14
-9.751493061
 24
-20.6468705971
 34
0.0
 15
10.3662233841
 25
6.8335860513
 35
0.0
146
0.0
 13
0.0
 23
0.0
 33
0.0
 16
1.0
 26
0.0
 36
0.0
 17
0.0
 27
1.0
 37
0.0
 76
     0
330
1F
331
29
  0
MLINESTYLE
  5
18
102
{ACAD_REACTORS
330
17
102
}
330
17
100
AcDbMlineStyle
  2
Standard
 70
     0
  3

 62
   256
 51
90.0
 52
90.0
 71
     2
 49
0.5
 62
   256
  6
BYLAYER
 49
-0.5
 62
   256
  6
BYLAYER
  0
ACDBPLACEHOLDER
  5
F
102
{ACAD_REACTORS
330
E
102
}
330
E
  0
SCALE
  5
3CA
102
{ACAD_REACTORS
330
3C9
102
}
330
3C9
100
AcDbScale
 70
     0
300
1:1
140
1.0
141
1.0
290
     1
  0
SCALE
  5
3CB
102
{ACAD_REACTORS
330
3C9
102
}
330
3C9
100
AcDbScale
 70
     0
300
1:2
140
1.0
141
2.0
290
     0
  0
SCALE
  5
3CC
102
{ACAD_REACTORS
330
3C9
102
}
330
3C9
100
AcDbScale
 70
     0
300
1:4
140
1.0
141
4.0
290
     0
  0
SCALE
  5
3CD
102
{ACAD_REACTORS
330
3C9
102
}
330
3C9
100
AcDbScale
 70
     0
300
1:5
140
1.0
141
5.0
290
     0
  0
SCALE
  5
3CE
102
{ACAD_REACTORS
330
3C9
102
}
330
3C9
100
AcDbScale
 70
     0
300
1:8
140
1.0
141
8.0
290
     0
  0
SCALE
  5
3CF
102
{ACAD_REACTORS
330
3C9
102
}
330
3C9
100
AcDbScale
 70
     0
300
1:10
140
1.0
141
10.0
290
     0
  0
SCALE
  5
3D0
102
{ACAD_REACTORS
330
3C9
102
}
330
3C9
100
AcDbScale
 70
     0
300
1:16
140
1.0
141
16.0
290
     0
  0
SCALE
  5
3D1
102
{ACAD_REACTORS
330
3C9
102
}
330
3C9
100
AcDbScale
 70
     0
300
1:20
140
1.0
141
20.0
290
     0
  0
SCALE
  5
3D2
102
{ACAD_REACTORS
330
3C9
102
}
330
3C9
100
AcDbScale
 70
     0
300
1:30
140
1.0
141
30.0
290
     0
  0
SCALE
  5
3D3
102
{ACAD_REACTORS
330
3C9
102
}
330
3C9
100
AcDbScale
 70
     0
300
1:40
140
1.0
141
40.0
290
     0
  0
SCALE
  5
3D4
102
{ACAD_REACTORS
330
3C9
102
}
330
3C9
100
AcDbScale
 70
     0
300
1:50
140
1.0
141
50.0
290
     0
  0
SCALE
  5
3D5
102
{ACAD_REACTORS
330
3C9
102
}
330
3C9
100
AcDbScale
 70
     0
300
1:100
140
1.0
141
100.0
290
     0
  0
SCALE
  5
3D6
102
{ACAD_REACTORS
330
3C9
102
}
330
3C9
100
AcDbScale
 70
     0
300
2:1
140
2.0
141
1.0
290
     0
  0
SCALE
  5
3D7
102
{ACAD_REACTORS
330
3C9
102
}
330
3C9
100
AcDbScale
 70
     0
300
4:1
140
4.0
141
1.0
290
     0
  0
SCALE
  5
3D8
102
{ACAD_REACTORS
330
3C9
102
}
330
3C9
100
AcDbScale
 70
     0
300
8:1
140
8.0
141
1.0
290
     0
  0
SCALE
  5
3D9
102
{ACAD_REACTORS
330
3C9
102
}
330
3C9
100
AcDbScale
 70
     0
300
10:1
140
10.0
141
1.0
290
     0
  0
SCALE
  5
3DA
102
{ACAD_REACTORS
330
3C9
102
}
330
3C9
100
AcDbScale
 70
     0
300
100:1
140
100.0
141
1.0
290
     0
  0
SCALE
  5
3DB
102
{ACAD_REACTORS
330
3C9
102
}
330
3C9
100
AcDbScale
 70
     0
300
1/128" = 1'-0"
140
0.0078125
141
12.0
290
     0
  0
SCALE
  5
3DC
102
{ACAD_REACTORS
330
3C9
102
}
330
3C9
100
AcDbScale
 70
     0
300
1/64" = 1'-0"
140
0.015625
141
12.0
290
     0
  0
SCALE
  5
3DD
102
{ACAD_REACTORS
330
3C9
102
}
330
3C9
100
AcDbScale
 70
     0
300
1/32" = 1'-0"
140
0.03125
141
12.0
290
     0
  0
SCALE
  5
3DE
102
{ACAD_REACTORS
330
3C9
102
}
330
3C9
100
AcDbScale
 70
     0
300
1/16" = 1'-0"
140
0.0625
141
12.0
290
     0
  0
SCALE
  5
3DF
102
{ACAD_REACTORS
330
3C9
102
}
330
3C9
100
AcDbScale
 70
     0
300
3/32" = 1'-0"
140
0.09375
141
12.0
290
     0
  0
SCALE
  5
3E0
102
{ACAD_REACTORS
330
3C9
102
}
330
3C9
100
AcDbScale
 70
     0
300
1/8" = 1'-0"
140
0.125
141
12.0
290
     0
  0
SCALE
  5
3E1
102
{ACAD_REACTORS
330
3C9
102
}
330
3C9
100
AcDbScale
 70
     0
300
3/16" = 1'-0"
140
0.1875
141
12.0
290
     0
  0
SCALE
  5
3E2
102
{ACAD_REACTORS
330
3C9
102
}
330
3C9
100
AcDbScale
 70
     0
300
1/4" = 1'-0"
140
0.25
141
12.0
290
     0
  0
SCALE
  5
3E3
102
{ACAD_REACTORS
330
3C9
102
}
330
3C9
100
AcDbScale
 70
     0
300
3/8" = 1'-0"
140
0.375
141
12.0
290
     0
  0
SCALE
  5
3E4
102
{ACAD_REACTORS
330
3C9
102
}
330
3C9
100
AcDbScale
 70
     0
300
1/2" = 1'-0"
140
0.5
141
12.0
290
     0
  0
SCALE
  5
3E5
102
{ACAD_REACTORS
330
3C9
102
}
330
3C9
100
AcDbScale
 70
     0
300
3/4" = 1'-0"
140
0.75
141
12.0
290
     0
  0
SCALE
  5
3E6
102
{ACAD_REACTORS
330
3C9
102
}
330
3C9
100
AcDbScale
 70
     0
300
1" = 1'-0"
140
1.0
141
12.0
290
     0
  0
SCALE
  5
3E7
102
{ACAD_REACTORS
330
3C9
102
}
330
3C9
100
AcDbScale
 70
     0
300
1-1/2" = 1'-0"
140
1.5
141
12.0
290
     0
  0
SCALE
  5
3E8
102
{ACAD_REACTORS
330
3C9
102
}
330
3C9
100
AcDbScale
 70
     0
300
3" = 1'-0"
140
3.0
141
12.0
290
     0
  0
SCALE
  5
3E9
102
{ACAD_REACTORS
330
3C9
102
}
330
3C9
100
AcDbScale
 70
     0
300
6" = 1'-0"
140
6.0
141
12.0
290
     0
  0
SCALE
  5
3EA
102
{ACAD_REACTORS
330
3C9
102
}
330
3C9
100
AcDbScale
 70
     0
300
1'-0" = 1'-0"
140
12.0
141
12.0
290
     0
  0
DICTIONARYVAR
  5
3F4
102
{ACAD_REACTORS
330
3F3
102
}
330
3F3
100
DictionaryVariables
280
     0
  1
1:1
  0
ENDSEC
  0
EOF
